Oops, an error
Loading. Please wait.

Shadow On The Sun Tab

version 2
version 2

Whole song

Interactive

30,153 views 39 this week
2 commentsread comments
1 2 3 4 5
x 8
add to favorites
launch autoscroll
font size
0
reset
how to read this tab
guitar tuner
Autoscroll
slow
fast
+/-
esc
set tempo
stop
Help us to improve Ultimate-Guitar.com Take our survey!
×
Author
from low to high : B A D G b e

[Intro] 
(clean)
e|--------------------------------------------------------------------|
B|--------------------------------------------------------------------|
G|----7---7---7---7---7---7---7---7----6---6---6---6---6---6---6---6--|
D|--9---9---9---9---9---9---9---9----7---7---7---7---7---7---7---7----|
A|--------------------------------------------------------------------|
E|--------------------------------------------------------------------|(2x)

[Verse] 
(clean)
e|--------------------------------------------------------------------|
B|--------------------------------------------------------------------|
G|----7---7---7---7---7---7---7---7----6---6---6---6---6---6---6---6--|
D|--9---9---9---9---9---9---9---9----7---7---7---7---7---7---7---7----|
A|--------------------------------------------------------------------|
E|--------------------------------------------------------------------|(8x)

[Chorus] 
(distorted)
e|---------------------------------------------------------------|
B|---------------------------------------------------------------|
G|---------------------------------------------------------------|
D|-------(4)--------------(4)--------------(4)-------------------|
A|--------2----------------2----------------2--------------------|
E|--5--3--0----0-7-3-5--3--0----0-7-3-5--3--0----0-7-3-5--3--10--|

[Verse] 
(clean)
e|--------------------------------------------------------------------|
B|--------------------------------------------------------------------|
G|----7---7---7---7---7---7---7---7----6---6---6---6---6---6---6---6--|
D|--9---9---9---9---9---9---9---9----7---7---7---7---7---7---7---7----|
A|--------------------------------------------------------------------|
E|--------------------------------------------------------------------|(6x)

[Chorus] 
(distorted)
e|----------------------------------------------|
B|----------------------------------------------|
G|----------------------------------------------|
D|-------(4)--------------(4)--------------(4)--|
A|--------2----------------2----------------2---|
E|--5--3--0----0-7-3-5--3--0----0-7-3-5--3--0---|

e|------------------------------|
B|------------------------------|
G|------------------------------|
D|------------------------------|
A|------------------------------|
E|--0-7-3-5--3--5-7-5--3-5-3-0--|

e|---------------------------------------------------------------|
B|---------------------------------------------------------------|
G|---------------------------------------------------------------|
D|-------(4)--------------(4)--------------(4)-------------------|
A|--------2----------------2----------------2--------------------|
E|--5--3--0----0-7-3-5--3--0----0-7-3-5--3--0----0-7-3-5--3--10--|

(then continue w/ this while 2nd guitar continues w/ 7777777)
e|--------------------------------------------------------------------|
B|--------------------------------------------------------------------|
G|----7---7---7---7---7---7---7---7----6---6---6---6---6---6---6---6--|
D|--9---9---9---9---9---9---9---9----7---7---7---7---7---7---7---7----|
A|--------------------------------------------------------------------|
E|--------------------------------------------------------------------|(6x)

[Chorus] 
(distorted)
e|----------------------------------------------|
B|----------------------------------------------|
G|----------------------------------------------|
D|-------(4)--------------(4)--------------(4)--|
A|--------2----------------2----------------2---|
E|--5--3--0----0-7-3-5--3--0----0-7-3-5--3--0---|

e|------------------------------|
B|------------------------------|
G|------------------------------|
D|------------------------------|
A|------------------------------|
E|--0-7-3-5--3--5-7-5--3-5-3-0--|

e|---------------------------------------------------------------|
B|---------------------------------------------------------------|
G|---------------------------------------------------------------|
D|-------(4)--------------(4)--------------(4)--------------(4)--|
A|--------2----------------2----------------2----------------2---|
E|--5--3--0----0-7-3-5--3--0----0-7-3-5--3--0----0-7-3-5--3--0---|


************************************

| (n)  Ghost note

************************************
Suggest correction
comments
print report bad tab
2 comments total.
0 reply
Morelloism 10 Feb 11, 2004 12:00 AM

7th fret harmonics in the verse. Can't forget those beauts!

0 reply
pokemonstudi0s 10 Apr 13, 2016 11:16 AM

Another way i do the muting sound in the solo is set the whammy to detune on deep and tremolo pick a muted B string to get this like humming bird wing sound

guest
You may want to rate the tab now too:
select rating
Wanna post a correction for this tab? Suggest correction