Oops, an error
Loading. Please wait.

Shape Of Things To Come Tab

version 1
version 1

Whole song

Interactive

4,197 views 9 this week
no commentswrite comment
1 2 3 4 5
accurate
x 4
add to favorites
launch autoscroll
font size
0
reset
how to read this tab
guitar tuner
Tab Pro tools
  • play this tab
  • loop segment
  • change instrument
  • show fretboard
  • metronome
×
Best way to learn
"Shape Of Things To Come"
Autoscroll
slow
fast
+/-
esc
set tempo
stop
Contributor
Title: Shape of Things to Come
Artist: Audioslave
Album: Revelations

Tuning - 'Dropped d' DADGBe

Intro
|-----------------------------------------------|
|-----------------------------------------------|
|-----------------------------------------------|
|-10/12-12-12-x-x-10/12-12-12-x-x-10/12-x-x-----|
|-10/12-12-12-x-x-10/12-12-12-x-x-10/12-x-x-----|
|-10/12-12-12-x-x-10/12-12-12-x-x-10/12-x-x-----|


|-----------------------------------------|
|-----------------------------------------|
|-----------------------------------------|
|-8/10-10-10-x-x-8/10-10-10-x-x-8/10------|
|-8/10-10-10-x-x-8/10-10-10-x-x-8/10------|
|-8/10-10-10-x-x-8/10-10-10-x-x-8/10------|

|--------------------------------------------------------|
|--------------------------------------------------------|
|--------------------------------------------------------|
|-5/7-7-7-x-x-3/5-5-5-x-x-2/3-x-x-0-2-2-3-3/5-0---10-12--|
|-5/7-7-7-x-x-3/5-5-5-x-x-2/3-x-x-0-2-2-3-3/5-0---10-12--|
|-5/7-7-7-x-x-3/5-5-5-x-x-2/3-x-x-0-2-2-3-3/5-0---10-12--|

|-----------------------------------------------|
|-----------------------------------------------|
|-----------------------------------------------|
|-10/12-12-12-x-x-10/12-12-12-x-x-10/12-x-x-----|
|-10/12-12-12-x-x-10/12-12-12-x-x-10/12-x-x-----|
|-10/12-12-12-x-x-10/12-12-12-x-x-10/12-x-x-----|


|-----------------------------------------|
|-----------------------------------------|
|-----------------------------------------|
|-8/10-10-10-x-x-8/10-10-10-x-x-8/10------|
|-8/10-10-10-x-x-8/10-10-10-x-x-8/10------|
|-8/10-10-10-x-x-8/10-10-10-x-x-8/10------|

|----------------------------------------------------|
|----------------------------------------------------|
|----------------------------------------------------|
|-5/7-7-7-x-x-3/5-5-5-x-x-2/3-x-x-0-2-2-3-3/5-0------|
|-5/7-7-7-x-x-3/5-5-5-x-x-2/3-x-x-0-2-2-3-3/5-0------|
|-5/7-7-7-x-x-3/5-5-5-x-x-2/3-x-x-0-2-2-3-3/5-0------|

Verse
|----------------------------------------------------------|
|-------------5---------------6----------------5-----------|
|-----7---------------7----------------7-----------5h7p5---|
|---7---7---7---7---7---7---7----7---7---7---7---7---------|
|-5-------5-------5-------5--------5-------5---------------|
|----------------------------------------------------------|

|------------------------------------------------------------------|
|-------------5---------------6----------------5----------8--------|
|-----7---------------7----------------7---------------10---10-----|
|---7---7---7---7---7---7---7----7---7---7---7---7---10--------10--|
|-5-------5-------5-------5--------5-------5-------8---------------|
|------------------------------------------------------------------|

Chorus
|-----------------------------------------------|
|-----------------------------------------------|
|-----------------------------------------------|
|-10/12-12-12-x-x-10/12-12-12-x-x-10/12-x-x-----|
|-10/12-12-12-x-x-10/12-12-12-x-x-10/12-x-x-----|
|-10/12-12-12-x-x-10/12-12-12-x-x-10/12-x-x-----|


|-----------------------------------------|
|-----------------------------------------|
|-----------------------------------------|
|-8/10-10-10-x-x-8/10-10-10-x-x-8/10------|
|-8/10-10-10-x-x-8/10-10-10-x-x-8/10------|
|-8/10-10-10-x-x-8/10-10-10-x-x-8/10------|

|-------------------------------------------------------|
|-------------------------------------------------------|
|-------------------------------------------------------|
|-5/7-7-7-x-x-3/5-5-5-x-x-2/3-x-x-0-2-2-3-3/5-5---8-10--|
|-5/7-7-7-x-x-3/5-5-5-x-x-2/3-x-x-0-2-2-3-3/5-5---8-10--|
|-5/7-7-7-x-x-3/5-5-5-x-x-2/3-x-x-0-2-2-3-3/5-5---8-10--|

|-----------------------------------------------|
|-----------------------------------------------|
|-----------------------------------------------|
|-10/12-12-12-x-x-10/12-12-12-x-x-10/12-x-x-----|
|-10/12-12-12-x-x-10/12-12-12-x-x-10/12-x-x-----|
|-10/12-12-12-x-x-10/12-12-12-x-x-10/12-x-x-----|


|-----------------------------------------|
|-----------------------------------------|
|-----------------------------------------|
|-8/10-10-10-x-x-8/10-10-10-x-x-8/10------|
|-8/10-10-10-x-x-8/10-10-10-x-x-8/10------|
|-8/10-10-10-x-x-8/10-10-10-x-x-8/10------|

|--------------------------------------------------|
|--------------------------------------------------|
|--------------------------------------------------|
|-5/7-7-7-x-x-3/5-5-5-x-x-2/3-x-x-0-2-2-3-3/5-0----|
|-5/7-7-7-x-x-3/5-5-5-x-x-2/3-x-x-0-2-2-3-3/5-0----|
|-5/7-7-7-x-x-3/5-5-5-x-x-2/3-x-x-0-2-2-3-3/5-0----|

Chorus 2
|-----------------------------------------------|
|-----------------------------------------------|
|-----------------------------------------------|
|-10/12-12-12-x-x-10/12-12-12-x-x-10/12-x-x-----|
|-10/12-12-12-x-x-10/12-12-12-x-x-10/12-x-x-----|
|-10/12-12-12-x-x-10/12-12-12-x-x-10/12-x-x-----|


|-----------------------------------------|
|-----------------------------------------|
|-----------------------------------------|
|-8/10-10-10-x-x-8/10-10-10-x-x-8/10------|
|-8/10-10-10-x-x-8/10-10-10-x-x-8/10------|
|-8/10-10-10-x-x-8/10-10-10-x-x-8/10------|

|-------------------------------------------------------|
|-------------------------------------------------------|
|-------------------------------------------------------|
|-5/7-7-7-x-x-3/5-5-5-x-x-2/3-x-x-0-2-2-3-3/5-5---8-10--|
|-5/7-7-7-x-x-3/5-5-5-x-x-2/3-x-x-0-2-2-3-3/5-5---8-10--|
|-5/7-7-7-x-x-3/5-5-5-x-x-2/3-x-x-0-2-2-3-3/5-5---8-10--|

|-----------------------------------------------|
|-----------------------------------------------|
|-----------------------------------------------|
|-10/12-12-12-x-x-10/12-12-12-x-x-10/12-x-x-----|
|-10/12-12-12-x-x-10/12-12-12-x-x-10/12-x-x-----|
|-10/12-12-12-x-x-10/12-12-12-x-x-10/12-x-x-----|


|-----------------------------------------|
|-----------------------------------------|
|-----------------------------------------|
|-8/10-10-10-x-x-8/10-10-10-x-x-8/10------|
|-8/10-10-10-x-x-8/10-10-10-x-x-8/10------|
|-8/10-10-10-x-x-8/10-10-10-x-x-8/10------|

|--------------------------------------------------|
|--------------------------------------------------|
|--------------------------------------------------|
|-5/7-7-7-x-x-3/5-5-5-x-x-2/3-x-x-0-2-2-3-3/5-0----|
|-5/7-7-7-x-x-3/5-5-5-x-x-2/3-x-x-0-2-2-3-3/5-0----|
|-5/7-7-7-x-x-3/5-5-5-x-x-2/3-x-x-0-2-2-3-3/5-0----|

|-------------------------------------------|
|-------------------------------------------|
|-------------------------------------------|
|-0-2-2-3-3/5-5---0-2-2-3-3/5-0-0-2-2-3-3/5-|
|-0-2-2-3-3/5-5---0-2-2-3-3/5-0-0-2-2-3-3/5-|
|-0-2-2-3-3/5-5---0-2-2-3-3/5-0-0-2-2-3-3/5-|

Bridge
BRriff A
|---------------------------|
|---------------------------|
|---------------------------|
|-5---3---------------------|
|---5---3-5-1-3-5-----------|
|-----------------5---------|
BRriff B
|---------------------------|
|---------------------------|
|---------------------------|
|-5-3-----------------------|
|-----4-1-3-----------------|
|-----------5-8-10-12-------|


i dont have the solo figured out yet. just some basic tome morrello pentatonic and whammy soloing.
if you want you can play the intro under it.

chorus 3
|-----------------------------------------------|
|-----------------------------------------------|
|-----------------------------------------------|
|-10/12-12-12-x-x-10/12-12-12-x-x-10/12-x-x-----|
|-10/12-12-12-x-x-10/12-12-12-x-x-10/12-x-x-----|
|-10/12-12-12-x-x-10/12-12-12-x-x-10/12-x-x-----|


|-----------------------------------------|
|-----------------------------------------|
|-----------------------------------------|
|-8/10-10-10-x-x-8/10-10-10-x-x-8/10------|
|-8/10-10-10-x-x-8/10-10-10-x-x-8/10------|
|-8/10-10-10-x-x-8/10-10-10-x-x-8/10------|

|-------------------------------------------------------|
|-------------------------------------------------------|
|-------------------------------------------------------|
|-5/7-7-7-x-x-3/5-5-5-x-x-2/3-x-x-0-2-2-3-3/5-5---8-10--|
|-5/7-7-7-x-x-3/5-5-5-x-x-2/3-x-x-0-2-2-3-3/5-5---8-10--|
|-5/7-7-7-x-x-3/5-5-5-x-x-2/3-x-x-0-2-2-3-3/5-5---8-10--|

|-----------------------------------------------|
|-----------------------------------------------|
|-----------------------------------------------|
|-10/12-12-12-x-x-10/12-12-12-x-x-10/12-x-x-----|
|-10/12-12-12-x-x-10/12-12-12-x-x-10/12-x-x-----|
|-10/12-12-12-x-x-10/12-12-12-x-x-10/12-x-x-----|


|-----------------------------------------|
|-----------------------------------------|
|-----------------------------------------|
|-8/10-10-10-x-x-8/10-10-10-x-x-8/10------|
|-8/10-10-10-x-x-8/10-10-10-x-x-8/10------|
|-8/10-10-10-x-x-8/10-10-10-x-x-8/10------|

|--------------------------------------------------|
|--------------------------------------------------|
|--------------------------------------------------|
|-5/7-7-7-x-x-3/5-5-5-x-x-2/3-x-x-0-2-2-3-3/5-0----|
|-5/7-7-7-x-x-3/5-5-5-x-x-2/3-x-x-0-2-2-3-3/5-0----|
|-5/7-7-7-x-x-3/5-5-5-x-x-2/3-x-x-0-2-2-3-3/5-0----|

|------------------------------|
|------------------------------|
|------------------------------|
|-0-2-2-3-3/5-5---0-2-2-3-3/5--|
|-0-2-2-3-3/5-5---0-2-2-3-3/5--|
|-0-2-2-3-3/5-5---0-2-2-3-3/5--|

Outro 
Oriff A
|------------------------------------------|
|------------------------------------------|
|------------------------------------------|
|-10/12-12-x-x-10/12-12-12-x-x-10/12-x-x---|
|-10/12-12-x-x-10/12-12-12-x-x-10/12-x-x---|
|-10/12-12-x-x-10/12-12-12-x-x-10/12-x-x---| 

Oriff B
|-----------------|
|-----------------|
|-----------------|
|-0-2-2-3-3/5-0---|
|-0-2-2-3-3/5-0---|
|-0-2-2-3-3/5-0---|

order:
Intro
verse x 4
chorus
verse x 4
chorus 2
BRriff A x3
BRriff b
solo (intro riff)
Chorus 3
Oriff A x3
Oriff B
comments
print report bad tab
I want to post or [tab]
guest
You may want to rate the tab now too:
select rating
Please do not post tabs as comments. Select "correction" instead!