Oops, an error
Loading. Please wait.

Show Me How To Live Tab

version 6
version 6
13,571 views 1 this week
3 commentsread comments
1 2 3 4 5
please rate
add to favorites
launch autoscroll
font size
0
reset
how to read this tab
guitar tuner
Autoscroll
slow
fast
+/-
esc
set tempo
stop
Help us to improve Ultimate-Guitar.com Take our survey!
×
Author

I want this tab!

Sorry, this artist has told us we can not show this tab.

Help us change their mind!
Tell us why you want to learn this song or why it is important to you, and
we will share these directly with the artist or their representative.
Your words and your story can make a difference. It works!

To understand more on what is happening, please read this article:
Why Songs on Ultimate Guitar Are Licensed (time to read: 1 minute)

Give kudos to tab author, rate the tab!
1 2 3 4 5
comments
print report bad tab
3 comments total.
0 reply
leakeg 46 wrote on April 16 2008, 07:56 am

verse is this:

E----------------------------------------------------------
B----------------------------------------------------------
G----------------------------------------------------------
D--------2---x-------xx------------------------------------
A------2-----x-------xx----------0h2-0---0-----------------
D--0-2-------x0---2--xx0---2---xx------2----2---2-5-0---0--

but yeah nice first tab!

0 reply
Ryeband 139 wrote on August 13 2008, 10:58 am

Very good tab! I know this doesn't matter at all 'cause it sounds the same but during the bridge he's actually just playing to bottom E string open.

0 reply
MagicsDevil 92 wrote on August 4 2010, 09:59 pm

The beginning first chord is a D, not an E.

Intro - Distrortion
|---------------|
|---------------|
|----7----------|
|----7----2-----| x4
|----5----2-----|
|---------2-----| More like this.

guest
You may want to rate the tab now too:
select rating
Wanna post a correction for this tab? Suggest correction