Oops, an error
Loading. Please wait.

The Last Remaining Light Chords

version 1
version 1

Whole song

Interactive

12,548 views 39 this week
1 commentread comment
1 2 3 4 5
excellent!
x 5
add to favorites
launch autoscroll
font size
0
reset
transpose
0
reset
simplify chords
- display chords -
guitar tuner
Tab Pro tools
  • play this tab
  • loop segment
  • change instrument
  • show fretboard
  • metronome
Autoscroll
slow
fast
+/-
esc
set tempo
stop
Contributor
-------------------------------------------------------------------------------
		The Last Remaining Light - Audioslave
-------------------------------------------------------------------------------
Tabbed by:Darwin Salcedo
Email:Dmusecian@yahoo.com

Tuning:EADGBE

	E|---1---0-----3------1----0----0--0-----1---3---1---0---2-|
	B|---3---3-----3------3----2----1--1-----0---3---1---0---3-|
        G|---2---2-----2------2----0----0--0-----0---4---2---0---4-|
	D|---0---0-----0------0----2----2--3-----0---3---1---2---4-|
	A|--------------------x----0----3--3-----2---5---3---2---2-|
	E|--------------------3----0-------------3---3---1---0-----|
             Dm  Dsus2 Dsus4  Dm/G A7/E C  Csus2 G7  G7* F7  Em  Bm

Intro 2x

	E|-----1----0----3-----0|
	B|---3----3----3-----3--|
        G|----------------------|
	D|----------------------|
	A|----------------------|
	E|----------------------|
            Dm   Dsus2 Dsus4 Dsus 2        

Verse

Dm      A7/E   C     G7
Roll Me on your frozen fields,
Dm       A7/E     C         G7
Break my bones to watch them heal,
Dm       A7/E      C    G7
Drown me in your thristy veins, where ill
Dm           A7/E    Csus2       Dm/G
watch and ill wait and pray for the rain.

Interlude

	
	E|-----1----0----3-----0|
	B|---3----3----3-----3--|
        G|----------------------|
	D|----------------------|
	A|----------------------|
	E|----------------------|
            Dm   Dsus2 Dsus4 Dsus 2
Verse 2

Dm       A7/E      C       G7
Curl like smoke and breathe again,
Dm       A7/E      C        G7
down your throat inside your ribs,
Dm          A7/E       C     G7
through your spine, in every nerve, where I
Dm         A7/E     Csus2        Dm/G
Watch and i wait and yield to the hurt

Chorus

F7  Em   Bm            G7*
         and if you dont believe the
F7       Em   Bm            G7*
Sun will rise stand alone and greet the
F7       Em   Bm            G7*
Coming night in the last remaining light

Guitar Solo 

verse 3

Dm       A7/E      C         G7
The seven moons and the seven suns, 
Dm     A7/E      C        G7
heaven waits for those who run

(Stroke the strings up and down much faster for the true passion)
Dm        A7/E       C              G7
down your winter and underneath your waves, where you
Dm           A7/E    Csus2         Dm/G
watch and you wait and pray for the Hurt


Chorus

F7  Em   Bm            G7*
         and if you dont believe the
F7       Em   Bm            G7*
Sun will rise stand alone and greet the
F7       Em   Bm            G7*
Coming night in the last remaining light

Guitar solo

Chorus

F7  Em   Bm            G7*
         and if you dont believe the
F7       Em   Bm            G7*
Sun will rise stand alone and greet the
F7       Em   Bm            G7*
Coming night in the last remaining light

Outro

Bm     G7*
Light, 
Bm     G7*
Light, 
Bm     G7*
Light, 
Bm
Light
comments
print report bad tab
1 comment total.
0 reply
cooljew wrote on April 27 2008, 02:52 pm

perfect...spot on.

I want to post or [tab]
guest
You may want to rate the tab now too:
select rating
Please do not post tabs as comments. Select "correction" instead!