Oops, an error
Loading. Please wait.

Until We Fall Tab

version 1
version 1

Whole song

Interactive

6,605 views 1 this week
1 commentread comment
1 2 3 4 5
x 7
add to favorites
launch autoscroll
font size
0
reset
how to read this tab
guitar tuner
Autoscroll
slow
fast
+/-
esc
set tempo
stop
Help us to improve Ultimate-Guitar.com Take our survey!
×
Author
Difficulty
intermediate
------------------------------------------------------------------|
Until We Fall- Audislave- Revelations- 2006-----------------------|
------------------------------------------------------------------|
Tabbed by: Nick Cottrell
Email: Cotchry@hotmail.com


Tuning:EADGBe
 	(Listen to song for strum pattern.)

	This is played on an acoustic (Cornell) and an electric (Morello).

		Acoustic Verse

			Intro/Verse     On the 3rd time of the first verse, play this (G).
					Then play this at the end of each verse
e|----0--------0--------0-------------            e|-3-           ----|
B|----1--------1--------1-----------1-            B|-3-        -1-----|
G|----0----0---2--------2-----------2-<=======    G|-0- Instead of-2--|
D|----2-0h2----2--0h2-3-3-3-3h2-0---2-            D|-0-        -2-----|
A|--3-3------0-0------------------0---            A|-2-        -------|
E|------------------------------------          E|-3-             ----|


		       1st Chorus (This part is Questionable.)
			Electric
e|------------------------------------------------------------------|
B|---3---3---3---3----3---3---3------------3---3---3---3----3---3---|
G|--2-2-2-2-2-2-2-2--2-2-2-2-2-2----------2-2-2-2-2-2-2-2--2-2-2--3-|
D|-0---3------------0---3----------------0---3------------0---3---3-|
A|-------------2-----------------2/3-2/3-------------2------------1-|
E|------------------------------------------------------------------|

		Acoustic
e|-2-2--------------|
B|-3-3---3---3---3--|
G|-2-2--2-2-2-2-2-2-|
D|-----3------------| etc...
A|-------------2----|
E|------------------|

The rest of the choruses are the same but with distrtion and an D being played on electric also.

	SOLO (Electric)

e|-----------------------------------------------------|
B|-5h3---3--------3-5h3---3/5---------3-5-5b---3-------|
G|-----5----0h2-5-------5-----5-0h2-5--------5---4~~~~-|
D|-----------------------------------------------------|
A|-----------------------------------------------------|
E|-----------------------------------------------------|

	Bridge

e|-------------------------------------|
B|-------------------------------------|
G|---------------3-5-------------------|
D|-555-5-3---3-5-----555-5-3---3-5-3-5-|	REPEAT 2X
A|-555-----5---------555-----5---------|
E|-333---------------333---------------|

	Bridge 2

e|-0---0----------|
B|--3---3---------|
G|----------------|
D|------- Repeat--| 8X
A|----------------|
E|----------------|

	End song on this:

e|-3-
B|-4-
G|-5-
D|-0-
A|---
E|---

	If you find any problems, especially with the chorus, then e-mail me. Thanks a lot.
Suggest correction
comments
print report bad tab
1 comment total.
+1 reply
Txhxc 16 Sep 08, 2006 02:33 PM

not bad... overall pretty good... 4stars... whoever gave you 1 star is a moron.

guest
You may want to rate the tab now too:
select rating
Wanna post a correction for this tab? Suggest correction