Oops, an error
Loading. Please wait.

Until We Fall Tab

version 2
version 2

Whole song

Interactive

7,092 views 7 this week
2 commentsread comments
1 2 3 4 5
excellent!
x 7
add to favorites
launch autoscroll
font size
0
reset
how to read this tab
guitar tuner
Tab Pro tools
  • play this tab
  • loop segment
  • change instrument
  • show fretboard
  • metronome
×
Best way to learn
"Until We Fall"
Autoscroll
slow
fast
+/-
esc
set tempo
stop
Contributor
Difficulty
novice
                                  UNTIL WE FALL
                            As recorded by Audioslave
                        (From the 2007 Album REVELATIONS)

Words by Chris Cornell

Music by Audioslave

Gtr I (E A D G B E) - 'Gtr. 1 (acous.)'
Gtr II (E A D G B E) - 'Gtr. 2 (acous.)'
Gtr III (E A D G B E) - 'Gtr. 3 (slight dist.)'
Gtr IV (E A D G B E) - 'Gtr. 4 (dist.)'
Gtr V (E A D G B E) - 'Gtr. 5 (dist.)'

 Intro
  Moderately Slow Q=92
 4/4
           Gtr I
  E H      Q  E. S S S E S S E   Q  E. S S S E E S S
|--------|---------------------|----0--0-0-0-0-0-----|
|--------|----1--1-1-1---------|----1--1-1-1-1-1-----|
|--------|----0--0-0-0-------0-|----2--2-2-2-2-2-----|
|--------|----2--2-2-2---0h2---|----2--2-2-2-2-2-0h2-|
|--------|-3-----------3-------|-0-------------0-----|
|--------|---------------------|---------------------|


                                             Verse
  Q  E. S S S Q  E   Q  E. S S S E +S  S E    Q  E. S S S E S S E
|----1--1-1-1-1----|----0--0-0-0-0-(0)-----||----------------------|
|----1--1-1-1-1----|----1--1-1-1-1-(1)-----||----1--1-1-1----------|
|----2--2-2-2-2----|----2--2-2-2-2-(2)-2---||----0--0-0-0-------0--|
|-3--3--3-3-3-3--0-|----2--2-2-2-2-(2)-----||----2--2-2-2---0h2----|
|------------------|-0-----0-0-0-0-(0)---2-||-3-----------3--------|
|------------------|-----------------------||----------------------|


  Q  E. S S S E E S S   Q  E. S S S Q  E   Q  E. S S S E +S  S E
|----0--0-0-0-0-0-----|----1--1-1-1-1----|----0--0-0-0-0-(0)------|
|----1--1-1-1-1-1-----|----1--1-1-1-1----|----1--1-1-1-1-(1)------|
|----2--2-2-2-2-2-----|----2--2-2-2-2----|----2--2-2-2-2-(2)-2----|
|----2--2-2-2-2-2-0h2-|-3--3--3-3-3-3--0-|----2--2-2-2-2-(2)------|
|-0-------------0-----|------------------|-0-----0-0-0-0-(0)---2--|
|---------------------|------------------|------------------------|


  Q  E. S S S E S S E   Q  E. S S S Q  S S
|---------------------|----0--0-0-0-0------|
|----1--1-1-1---------|----1--1-1-1-1------|
|----0--0-0-0-------0-|----2--2-2-2-2------|
|----2--2-2-2---0h2---|----2--2-2-2-2--0h2-|
|-3-----------3-------|-0-----------2------|
|---------------------|--------------------|


  Q  E. S S S Q  E   Q  E. S S S S S E E
|----1--1-1-1-1----|----3----------------|
|----1--1-1-1-1----|----0----------------|
|----2--2-2-2-2----|----0--0-0-0-0-0-0---|
|-3--3--3-3-3-3--0-|----0--0-0-0-0-0-0---|
|------------------|----2--2-2-2-2-2-2-2-|
|------------------|-3--3--3-3-3-3-3-3---|


  Q  E. S S S E S S E   Q  E. S S S E E S S   Q  E. S S S Q  E
|---------------------|----0--0-0-0-0-0-----|----1--1-1-1-1-----|
|----1--1-1-1---------|----1--1-1-1-1-1-----|----1--1-1-1-1-----|
|----0--0-0-0-------0-|----2--2-2-2-2-2-----|----2--2-2-2-2-----|
|----2--2-2-2---0h2---|----2--2-2-2-2-2-0h2-|-3--3--3-3-3-3--0--|
|-3-----------3-------|-0-------------0-----|-------------------|
|---------------------|---------------------|-------------------|


  Q  E. S S S E +S  S E   Q  E. S S S E S S E   Q  E. S S S E E S S
|----0--0-0-0-0-(0)-----|---------------------|----0--0-0-0-0-0-----|
|----1--1-1-1-1-(1)-----|----1--1-1-1---------|----1--1-1-1-1-1-----|
|----2--2-2-2-2-(2)-2---|----0--0-0-0-------0-|----2--2-2-2-2-2-----|
|----2--2-2-2-2-(2)-----|----2--2-2-2---0h2---|----2--2-2-2-2-2-0h2-|
|-0-----0-0-0-0-(0)---2-|-3-----------3-------|-0-------------0-----|
|-----------------------|---------------------|---------------------|


  Q  E. S S S Q  E   Q  E. S S S E E S S   Q  E. S S S E E E
|----1--1-1-1-1----|----3--3-3-3---3-3-3-|----3--3-3-3-3-3---||
|----1--1-1-1-1----|----0--0-0-0---0-0-0-|----0--0-0-0-0-0-0-||
|----2--2-2-2-2----|----0--0-0-0---0-0-0-|----0--0-0-0-0-0-0-||
|-3--3--3-3-3-3--0-|----0--0-0-0---0-0-0-|----0--0-0-0-0-0-0-||
|------------------|----2--------2-------|-2-----2-2-2-2-2---||
|------------------|-3--3--------3-------|-3-----3-3-3-3-3---||


 Chorus
  Q  Q  E E E E   +E  E E E E E E E   Q  Q  E E E E
|-2--2----------|-------------------|-2--2----------|
|-3--3------3---|-------3-------3---|-3--3------3---|
|-2--2----0-----|-----0---0---0---0-|-2--2----0-----|
|-0--0--3-------|-------------------|-0--0--3-------|
|-------------3-|-(3)-------2-------|-------------3-|
|---------------|-------------------|---------------|


  +E  E E E E E E E   Q  Q  E E E E   +E  E E E E E E E
|-------------------|-2--2----------|-------------------|
|-------3-----------|-3--3------3---|-------3-------3---|
|-----0---0---------|-2--2----0-----|-----0---0---0---0-|
|-------------------|-0--0--3-------|-------------------|
|-(3)-------2h3-2h3-|-------------3-|-(3)-------2-------|
|-------------------|---------------|-------------------|


  Q  Q  E E E E   +W
|-2--2----------|--------||
|-3--3------3---|--------||
|-2--2----0-----|--------||
|-0--0--3-------|--------||
|-------------1-|-(1)----||
|---------------|--------||


 Interlude
  Gtr III
  E     E  E  E   +E    S S E   e   E     E  E  e       E   Q   S S
|---------------------------------|---------------------------------|
|---------------------------------|---------------------------------|
|-7pb9r(7)-5--7---(7)-------5---7-|-7pb9r(7)-5--7b9.5-------5-------|
|-----------------------5h7-------|-----------------------------5h7-|
|---------------------------------|---------------------------------|
|---------------------------------|---------------------------------|
|
| Gtr I
| Q        E.   S  S  S E   S S E   Q        E.       S S S E E S S
|---------------------------------|----------0--------0-0-0-0-0-----|
|----------1----1--1--1-----------|----------1--------1-1-1-1-1-----|
|----------0----0--0--0---------0-|----------2--------2-2-2-2-2-----|
|----------2----2--2--2-----0h2---|----------2--------2-2-2-2-2-0h2-|
|-3---------------------3---------|-0-------------------------0-----|
|---------------------------------|---------------------------------|


                                                                    >
  E E e   Q           E  E E   E +E     E  +E       H              +Q
|----------------------------|------------------------------------------||
|----------------------------|------------------------------------------||
|-5-7-7b9-7pb9r======(7)-5-7-|-4-(4)b5r(4)-(4)b5r==(4)-------------(4)--||
|----------------------------|------------------------------------------||
|----------------------------|------------------------------------------||
|----------------------------|------------------------------------------||
|
| Q   E.       S S S  Q    E   Q        E.       S  S  S E +S  S E
|-----1--------1-1-1--1------|----------0--------0--0--0-0-(0)----------||
|-----1--------1-1-1--1------|----------1--------1--1--1-1-(1)----------||
|-----2--------2-2-2--2------|----------2--------2--2--2-2-(2)-2--------||
|-3---3--------3-3-3--3----0-|----------2--------2--2--2-2-(2)----------||
|----------------------------|-0-----------------0--0--0-0-(0)---2------||
|----------------------------|------------------------------------------||


 Verse
  Gtrs I, II
  Q  E. S S S E S S E   Q  E. S S S E E S S   Q  E. S S S Q  E
|---------------------|----0--0-0-0-0-0-----|----1--1-1-1-1-----|
|----1--1-1-1---------|----1--1-1-1-1-1-----|----1--1-1-1-1-----|
|----0--0-0-0-------0-|----2--2-2-2-2-2-----|----2--2-2-2-2-----|
|----2--2-2-2---0h2---|----2--2-2-2-2-2-0h2-|-3--3--3-3-3-3--0--|
|-3-----------3-------|-0-------------0-----|-------------------|
|---------------------|---------------------|-------------------|


  Q  E. S S S E +S  S E   Q  E. S S S E S S E   Q  E. S S S E E S S
|----0--0-0-0-0-(0)-----|---------------------|----0--0-0-0-0-0-----|
|----1--1-1-1-1-(1)-----|----1--1-1-1---------|----1--1-1-1-1-1-----|
|----2--2-2-2-2-(2)-2---|----0--0-0-0-------0-|----2--2-2-2-2-2-----|
|----2--2-2-2-2-(2)-----|----2--2-2-2---0h2---|----2--2-2-2-2-2-0h2-|
|-0-----0-0-0-0-(0)---2-|-3-----------3-------|-0-------------0-----|
|-----------------------|---------------------|---------------------|


  Q  E. S S S Q  E   Q  E. S S S E E S S   Q  E. S S S E E E
|----1--1-1-1-1----|----3--3-3-3---3-3-3-|----3--3-3-3-3-3---||
|----1--1-1-1-1----|----0--0-0-0---0-0-0-|----0--0-0-0-0-0-0-||
|----2--2-2-2-2----|----0--0-0-0---0-0-0-|----0--0-0-0-0-0-0-||
|-3--3--3-3-3-3--0-|----0--0-0-0---0-0-0-|----0--0-0-0-0-0-0-||
|------------------|----2--------2-------|-2-----2-2-2-2-2---||
|------------------|-3--3--------3-------|-3-----3-3-3-3-3---||


 Chorus
  $
  Q  Q  E E E E   +E  E E E E E E E   Q  Q  E E E E
|-2--2----------|-------------------|-2--2----------|
|-3--3------3---|-------3-------3---|-3--3------3---|
|-2--2----0-----|-----0---0---0---0-|-2--2----0-----|
|-0--0--3-------|-------------------|-0--0--3-------|
|-------------3-|-(3)-------2-------|-------------3-|
|---------------|-------------------|---------------|


  +E  E E E E E E E   Q  Q  E E E E   +E  E E E E E E E
|-------------------|-2--2----------|-------------------|
|-------3-----------|-3--3------3---|-------3-------3---|
|-----0---0---------|-2--2----0-----|-----0---0---0---0-|
|-------------------|-0--0--3-------|-------------------|
|-(3)-------2h3-2h3-|-------------3-|-(3)-------2-------|
|-------------------|---------------|-------------------|


  Q  Q  E E E E   +E  E E E E E   E  E   W
|-2--2----------|----------------------|-----------------|
|-3--3------3---|-------3---------3----|-----------------|
|-2--2----0-----|-----0---0---0------0-|-----------------|
|-0--0--3-------|----------------------|-----------------|
|-------------1-|-(1)-------3----------|-----------------|
|---------------|----------------------|-----------------|
|
|                 Gtr IV
| W                H        Q     Q      Q.   E +E  Q  E
|---------------|----------------------|-----------------|
|---------------|----------------------|-----------------|
|---------------|----------------------|-----------------|
|---------------|----------------------|------5-(5)-3----|
|---------------|----------------------|---------------5-|
|---------------|---------------/19\---|-3---------------|


                                           To Coda
  Gtr IV
   Q   Q  Q  E E   Q.   E +E  Q  E   +Q   Q  Q  E E
|----------------|-----------------|----------------|
|----------------|-----------------|----------------|
|------------3h5-|-----------------|------------3h5-|
|------3--5------|------5-(5)-3----|------3--5------|
|-(5)------------|---------------5-|-(5)------------|
|----------------|-3---------------|----------------|


  Q.   E +E  Q  E   +Q   Q  Q  E E   Q.   E +E  Q  E   +Q   Q  Q  E E
|-----------------|----------------|-----------------|-----------------||
|-----------------|----------------|-----------------|-----------------||
|-----------------|------------3h5-|-----------------|------------3h5--||
|------5-(5)-3----|------3--5------|------5-(5)-3----|------3--5-------||
|---------------5-|-(5)------------|---------------5-|-(5)-------------||
|-3---------------|----------------|-3---------------|-----------------||


 Bridge
  Gtr V
   PM---------------------------------------------------------------------|
   E  E  E E  E   E  E E    E   E  E E  E   E  E E    E  E  E E  E   E  E E
|-10----10---10-----10---|-10-----10---10-----10---|-10----10---10-----10---|
|----13----------13------|-----13----------13------|----13----------13------|
|----------0-----------0-|-----------0-----------0-|----------0-----------0-|
|------------------------|-------------------------|------------------------|
|------------------------|-------------------------|------------------------|
|------------------------|-------------------------|------------------------|
|
| Gtr I
|  E  E  E E +E   E  E E   +E   E  E E +E   E  E E    E  E  E E +E   E  E E
|-----0-----------0------|------0-----------0------|-----0-----------0------|
|--------3-----------3---|---------3-----------3---|--------3-----------3---|
|----------2-(2)-------2-|-(2)-------2-(2)-------2-|----------2-(2)-------2-|
|--0---------------------|-------------------------|--0---------------------|
|------------------------|-------------------------|------------------------|
|------------------------|-------------------------|------------------------|
|
| Gtr IV
|  >
|  W                       +W                         W
|------------------------|-------------------------|------------------------|
|------------------------|-------------------------|------------------------|
|------------------------|-------------------------|------------------------|
|------------------------|-------------------------|------------------------|
|--5---------------------|-(5)---------------------|------------------------|
|------------------------|-------------------------|------------------------|


  Gtr V
   PM---------------------------------------------------------------------|
   E   E  E E  E   E  E E    E  E  E E  E   E  E E    E  E  E E  E   E  E E
|-10-----10---10-----10---|-10----10---10-----10---|-10----10---10-----10---|
|-----13----------13------|----13----------13------|----13----------13------|
|-----------0-----------0-|----------0-----------0-|----------0-----------0-|
|-------------------------|------------------------|------------------------|
|-------------------------|------------------------|------------------------|
|-------------------------|------------------------|------------------------|
|
| Gtr I
| +E   E  E E +E   E  E E    E  E  E E +E   E  E E    E  E  E E +E   E  E E
|------0-----------0------|-----0-----------0------|-----0-----------0------|
|---------3-----------3---|--------3-----------3---|--------3-----------3---|
|-(2)-------2-(2)-------2-|----------2-(2)-------2-|--2-------2-(2)-------2-|
|-------------------------|--0---------------------|------------------------|
|-------------------------|------------------------|------------------------|
|-------------------------|------------------------|------------------------|


   PM------------------------------------------|
   E  E  E E  E  E  E E    E   E  E E  E  E  E E
|-10----10---10----10---|-10-----10---10----10---|
|----13---------13------|-----13---------13------|
|----------0----------0-|-----------0----------0-|
|-----------------------|------------------------|
|-----------------------|------------------------|
|-----------------------|------------------------|
|
|  E  E  E E  E  E  E E   +E   E  E E  E  E  E E
|-----0----------0------|------0----------0------|
|--------3----------3---|---------3----------3---|
|----------2------------|-----------0----------0-|
|--0----------3---------|------------------------|
|---------------------1-|-(1)----------3---------|
|-----------------------|------------------------|


                                 D.S. al Coda
   E  E  E  E  E  E  E  E    E  E  E E  E  E Q
|-10----10-10-10----10----|-10----10---10-10-----||
|----13----------13----13-|----13----------------||
|-------------------------|----------0-----------||
|-------------------------|----------------------||
|-------------------------|----------------------||
|-------------------------|----------------------||
|
|  E  E  E  E  E  E  E  E    E  E  E E  E  E Q
|--------------------3----|--3-----3----3--3-----||
|--------------3--3--3----|--3-----3----3--3-----||
|--0--0--0--0--0--0--0--0-|--0--0--0-0--0--0-----||
|--0--0--0--0--0--0--0--0-|--0--0--0-0--0--0-----||
|--x--x--x--x--x--x--x--x-|--2--2--2-2--2--2-----||
|--3--3--3--3--3--3--3--3-|--3--3--3-3--3--3-----||


  &
  Gtr IV
  Q.   E +E  Q  E   +Q   Q  Q  E E   Q.   E +E  Q  E
|-----------------|----------------|-----------------|
|-----------------|----------------|-----------------|
|-----------------|------------3h5-|-----------------|
|------5-(5)-3----|------3--5------|------5-(5)-3----|
|---------------5-|-(5)------------|---------------5-|
|-3---------------|----------------|-3---------------|


                   Free Time Q=120
                   Gtr I
   Q   Q  Q  E E   E  Q.   +H       +W
|----------------|---!3----(3)----:-(3)----*|
|----------------|---!4----(4)----:-(4)----*|
|----------------|---!3----(3)----:-(3)----*|
|------3--5--3-5-|---!5----(5)----:-(5)----*|
|-(5)------------|---!3----(3)----:-(3)----*|
|----------------|----------------:--------*|


Duration Legend
---------------
W - whole; H - half; Q - quarter; E - 8th; S - 16th; T - 32nd; X - 64th; a - acciaccatura
+ - note tied to previous; . - note dotted; .. - note double dotted
Uncapitalized letters represent notes that are staccato (1/2 duration)
Irregular groupings are notated above the duration line
Duration letters will always appear directly above the note/fret number it represents the
duration for.  Duration letters with no fret number below them represent rests.  Multi-
bar rests are notated in the form Wxn, where n is the number of bars to rest for.  Low
melody durations appear below the staff

Tablature Legend
----------------
 h   - hammer-on
 p   - pull-off
 b   - bend
 pb  - pre-bend
 r   - bend release (if no number after the r, then release immediately)
 /\  - slide into or out of (from/to "nowhere")
 s   - legato slide
 S   - shift slide
  - natural harmonic
[n]  - artificial harmonic
n(n) - tapped harmonic
 ~   - vibrato
 tr  - trill
 T   - tap
 TP  - trem. picking
 PM  - palm muting
\n/  - tremolo bar dip; n = amount to dip
 \n  - tremolo bar down
 n/  - tremolo bar up
/n\  - tremolo bar inverted dip
 =   - hold bend; also acts as connecting device for hammers/pulls
 <>  - volume swell (louder/softer)
 x   - on rhythm slash represents muted slash
 o   - on rhythm slash represents single note slash

Misc Legend
-----------
 |  - bar
||  - double bar
||o - repeat start
o|| - repeat end
*|  - double bar (ending)
 :  - bar (freetime)
 $  - Segno
 &  - Coda
Tempo markers -  = BPM(8/16=s8/s16), where s8 = swing 8ths, s16 = swing 16ths


***************************************************************************************
* Generated using Power Tab Editor by Brad Larsen - http://powertab.guitarnetwork.org *
***************************************************************************************
comments
print report bad tab
2 comments total.
0 reply
wangmaster wrote on September 1 2007, 05:31 am

dude, revalations is a 2007 album.

0 reply
wangmaster wrote on September 1 2007, 05:31 am

^I meant 2006 lol

I want to post or [tab]
guest
You may want to rate the tab now too:
select rating
Please do not post tabs as comments. Select "correction" instead!