Oops, an error
Loading. Please wait.

We Got A Better Bomb intro tab

version 1
version 1

Intro

526 views 1 this week
2 commentsread comments
1 2 3 4 5
1 last vote to show rating
add to favorites
×
Save as Personal and add changes to this tab that will be seen only by you. Learn more ›
×
You can save this tab as Personal to edit and correct it or add notes. All changes will be seen only by you. Learn more »
launch autoscroll
font size
0
reset
how to read this tab
guitar tuner
edit
Autoscroll
slow
fast
+/-
esc
set tempo
stop
Author
This song ain't quite right but sounds pretty good anyway.
It's a start for sum1 better to figure out.

Standard tuning:

I've not got the timing in but it's pretty easy to figure out


E|-----------------------------------------------------|
B|-----------------------------------------------------|
G|----------------------------------------------------:|
D|-----------3p0--5p0----------------------------------|
A|----3--5-------------3p5--0---3p0--3p0--------------:|
E|-0--------------------------------------3p0--3p2--0p2|

That's bout it. cya

            
            
Suggest correction
Creating personal tab
Creating personal tab
You can edit any tab online and save it as your Personal.

You can edit, replace or remove any tab part or add personal notes – all changes will be seen only by you.

Personal tabs can be accessed anytime from any device, even offline.
Learn more »
Give kudos to tab author, rate the tab!
1 2 3 4 5
comments
print report bad tab
2 comments total.
0 reply
Morelloism 10 Feb 11, 2004 07:00 PM

Isn't there some string noise? Like:

E|------------------------------------------------------------|
B|------------------------------------------------------------|
G|-----------------------------------------------------------:|
D|--------------3p0--5p0--------------------------------------|
A|------3--5-------------3p5--0----3p0--3p0------------------:|
E|-0-xx------xxxx---------------xx----------3p0--3p2--0p2-----|

0 reply
olliec4 10 Jun 22, 2012 11:23 AM

pretty sure its DADGBE (drop D) tuning! and the last 6 notes are:

D-5p3--5p3--0p3--

otherwise... nice try! keep it up! :D

guest
You may want to rate the tab now too:
select rating
Wanna post a correction for this tab? Suggest correction