Oops, an error
Loading. Please wait.

Worm bass

version 3
version 3

Whole song

539 views 1 this week
no commentswrite comment
1 2 3 4 5
2 more votes to show rating
add to favorites
×
Save as Personal and add changes to this tab that will be seen only by you. Learn more ›
×
You can save this tab as Personal to edit and correct it or add notes. All changes will be seen only by you. Learn more »
launch autoscroll
font size
0
reset
guitar tuner
edit
Autoscroll
slow
fast
+/-
esc
set tempo
stop
Author
Difficulty
Audioslave - The Worm Bass Tab
Tuning: BEAD (Can just use a 5-string but Tim uses a 4-string with B,E,A and D strings 
of a 5-string, odd but thats how he does it)
Intermediate Skill Level (Because of speed of some parts)
A little distortion used throughout the song.
Duration - 3:57

D|-----|
A|-----|
E|-5-7-|
B|-----| x 4

D|-------|
A|-------|
E|-x-5-7-|
B|-------| x 4

Verse 1:
D|--------|
A|--------|
E|-0~~~~~~|
B|--------| x 1
Hold 0 for 6 beats (listen to Brad's hi-hat for timing)

D|------------------------------------------------|
A|-------5---5-7----------------------------------|
E|-7-5-7---7-------5------------------------------|
B|---------------7---7-5-7-5-3-7-5-7-0-3-5-0~~~~~~| x 3
Hold 0 for 6 beats (except on last time where you only hold for 4 beats, again listen to 
hi-hat for timing)

Chorus:
D|------------------|
A|------------------|
E|-7-10-5-3-0-5-3-0-|
B|------------------| x 3

D|------------------|
A|------------------|
E|-12-10-5-3-0-5-3-0|
B|------------------| x 1

Verse 2:
D|--------|
A|--------|
E|-0~~~~~~|
B|--------| x 1
Hold 0 for 6 beats (listen to Brad's hi-hat)

D|------------------------------------------------|
A|-------5---5-7----------------------------------|
E|-7-5-7---7-------5------------------------------|
B|---------------7---7-5-7-5-3-7-5-7-0-3-5-0~~~~~~| x 3
Hold 0 for 6 beats (except on last time where you only hold for 4 beats, again listen to 
hi-hat for timing)

Chorus 2:
D|------------------|
A|------------------|
E|-7-10-5-3-0-5-3-0-|
B|------------------| x 3

D|------------------|
A|------------------|
E|-12-10-5-3-0-5-3-0|
B|------------------| x 1

D|-----|
A|-----|
E|-5-7-|
B|-----| x 3

D|-------|
A|-------|
E|-x-5-7-|
B|-------| x 1

Solo:
D|-------------------|
A|-------------------|
E|-12-10-5-3-0-5-3-0-|
B|-------------------| x 3

D|----------------------|
A|----------------------|
E|-7-10-5-3-0-5-3-0-5-3-|
B|----------------------| x 1

D|-------------------|
A|-------------------|
E|-12-10-5-3-0-5-3-0-|
B|-------------------| x 3

D|----------------------|
A|----------------------|
E|-7-10-5-3-0-5-3-0-5-3-|
B|----------------------| x 1

Interlude Bit:
D|-----------------------------------------------------------------|
A|---------------------------------9-9-9-9-9-9-9-9-9-9-9-9-9-9-9-9-|
E|-7-7-7-7-7-7-7-7-7-7-7-7-7-7-7-7---------------------------------|
B|-----------------------------------------------------------------|

D|-7-7-7-7-7-7-7-7-7-7-7-7-7-7-7-7-------------------------------------|
A|---------------------------------9-9-9-9-9-9-9-9---------------------|
E|-------------------------------------------------10-10-10-10-9-9-9-9-|
B|---------------------------------------------------------------------|

D|-----------------------------------------------------------------|
A|---------------------------------9-9-9-9-9-9-9-9-9-9-9-9-9-9-9-9-|
E|-7-7-7-7-7-7-7-7-7-7-7-7-7-7-7-7---------------------------------|
B|-----------------------------------------------------------------|

D|-7-7-7-7-7-7-7-7-7-7-7-7-7-7-7-7-14-14-14-14-14-14-14-14-12-12-12-12-11-11-11-11-|
A|---------------------------------------------------------------------------------|
E|---------------------------------------------------------------------------------|
B|---------------------------------------------------------------------------------|

D|-----|
A|-----|
E|-5-7-|
B|-----| x 3

D|-------------------|
A|-------------------|
E|-12-10-5-3-0-5-3-0-|
B|-------------------| x 1

D|------------------|
A|------------------|
E|-7-10-5-3-0-5-3-0-|
B|------------------| x 3

Ending:
D|------------------------|
A|------------------------|
E|-12-10-5-3-0-5-3-0------|
B|-------------------0~~~~|

Well I think thats 100% correct, corrections/abuse/comments/CONSTRUCTIVE critisism in 
comments bit please and feel free to rate it too.
Suggest correction
Creating personal tab
Creating personal tab
You can edit any tab online and save it as your Personal.

You can edit, replace or remove any tab part or add personal notes – all changes will be seen only by you.

Personal tabs can be accessed anytime from any device, even offline.
Learn more »
Give kudos to tab author, rate the tab!
1 2 3 4 5
comments
print report bad tab
guest
You may want to rate the tab now too:
select rating
Wanna post a correction for this tab? Suggest correction