Oops, an error
Loading. Please wait.

Your Time Has Come bass

version 3
version 3

Whole song

Interactive

8,065 views 3 this week
7 commentsread comments
1 2 3 4 5
x 20
add to favorites
×
Save as Personal and add changes to this tab that will be seen only by you. Learn more ›
×
You can save this tab as Personal to edit and correct it or add notes. All changes will be seen only by you. Learn more »
launch autoscroll
font size
0
reset
guitar tuner
backing track
0:00
0:00
edit
Autoscroll
slow
fast
+/-
esc
set tempo
stop
Author
Difficulty
-------------------------------------------------------------------------------
			     Your Time Has Come - Audioslave
-------------------------------------------------------------------------------

Tabbed By : spector_gunship
e-mail: spector_gunship@yahoo.com

Tuning: standard

I've got two ways to play the Verse pattern. The 1st way is easier (for me) but slides
away from the start of the next pattern. The 2nd way leaves you right where you need to
be when you come out of the slide. Either way sounds the same. I tabbed both so float
your own boat. Rated intermediate just for speed... the patterns are really easy to
learn. Hope this helps someone. 

1st Way - Verse:                   

G|------------------------------| 
D|-2-0---------2-0--------------|
A|-----2-0---------2-0----------|
E|---------3-0---------3-0-/5---|

2nd Way - Verse:

G|------------------------------|
D|---0------------0-------------|
A|-7-----0------7-----0---------|
E|-----7---3-0------7---3-0-/5--|

Chorus:

G|----------------------------------------------------|
D|----------------------------------------------------|
A|--------0-2-5-5--5-5-5-5---0-0--0-------------------|
E|-3-3--3---------------------------3-2-0-0--0-0-0-0--|

When you come out of the Chorus just leave off the open E's and dive right back into
the Verse. 

*If you want to play the Chorus as close to perfect as possible, listen for the very
minor rhythm variations of the fretted 5ths on the A string and the open E's. If you
don't get them no one will probably notice anyways.*

*Also, I know you could play the 5th fret A as an open D but this way you don't have
to mute the D going to the open A. Again, whatever floats your boat.*

Guitar Solo:

Play the Chorus during the Guitar Solo but on the last time through play this variation
and then right back into the Verse:

G|------------------------------------|
D|------------------------------------|
A|--------0-2-5-5--5-2-0--0-0--0------|
E|-3-3--3------------------------3-2--|


Break:

G|---------------------|
D|---------------------|
A|---------5~--0~------|
E|-0~--3~--------3-3~--|  

On the last time play something like this and then back to the Chorus: 

G|-----------------------------|
D|-----------------------------|
A|---------5~----0-0--0-0-0-0--|
E|-0~--3~----------------------|  

That's it. The order is too easy to miss... just listen to the song. 

Questions, comments, proposals, and hate mail will be answered or disregarded in
the order they are received.

===============================================================================

            
            
Suggest correction
Creating personal tab
Creating personal tab
You can edit any tab online and save it as your Personal.

You can edit, replace or remove any tab part or add personal notes – all changes will be seen only by you.

Personal tabs can be accessed anytime from any device, even offline.
Learn more »
comments
print report bad tab
7 comments total. Showing first comments.
-1 reply
commerfield fan 10 May 09, 2007 07:12 PM

Your Interpretation:
Chorus:
G|----------------------------------------------------|
D|----------------------------------------------------|
A|--------0-2-5-5--5-5-5-5---0-0--0-------------------|
E|-3-3--3---------------------------3-2-0-0--0-0-0-0--|
Chorus:
Noticed By Ear So Please Don't Be Too Harsh If I'm Wrong
My Revision:
G|-----------------------------------------------------|
D|------------------------------------------2--2-2--2--|
A|--------0-2-5-5--5-5-5-5---0-0--0--------------------|
E|-3-3--3---------------------------3-2-0-0--0----0----|

Oh, And Don't Make Fun Of The Name! I Have A Speech Problem And I Constantly Screw Up Names. It Should Be Commerford Fan. Great Tab!

+1 reply
Sp00nman94 176 Jul 26, 2008 12:16 PM

very nice tab

+1 reply
Sp00nman94 176 Sep 06, 2008 11:39 AM

excellent tab

guest
You may want to rate the tab now too:
select rating
Wanna post a correction for this tab? Suggest correction