Oops, an error
Loading. Please wait.

The Energy Tab

version 2
version 2

Whole song

Interactive

525 views 3 this week
4 commentsread comments
1 2 3 4 5
x 5
add to favorites
launch autoscroll
font size
0
reset
how to read this tab
guitar tuner
Autoscroll
slow
fast
+/-
esc
set tempo
stop
Help us to improve Ultimate-Guitar.com Take our survey!
×
Arist - Audiovent
Song - The Energy
Album - Dirty Sexy Knights In Paris
Tabbed by - AguitarZplayiN (AguitarZplayiN@hotmail.com)

Dropped D

Intro x4
e--0-3-2---2-3-0-3-2---2-3---------3----|
B--------3-----------3--------1---------|
G---------------------------------------|
D---------------------------------------| bend the last note
A---------------------------------------| on the last repeat
D---------------------------------------|


Verse x2
"Every now and then I think about you..."
e----------------------------------------------------------|
B----------------------------------------------------------|
G---------------------------------------------------5-5-5--|
D--2--2-2----5--5-5----5-5-5----0---0-0----0-7-0-7--5-5-5--|
A--2--2-2----5--5-5----5-5-5----0---0-0----0-7-0-7--3-3-3--|
D--2--2-2----5--5-5----5-5-5----0---0-0----0-7-0-7---------|
                                        play this first time through:
e-------------------------------------------|-----|
B-------------------------------------------|-----|bend this note while
G-------------------------------------------|-9b--|playing it 6 times
D--2--2-2---0--0-0----0-0-0----5--5-5----7--|-----|
A--2--2-2---0--0-0----0-0-0----5--5-5----7--|-----|
D--2--2-2---0--0-0----0-0-0----5--5-5----7--|-----|


Prechorus x1
"Now that you're leavin'..."
e--0------0------0------0------0------0------0-------0--|
B--7------5------7------5------7------5------7-------7--|
G--9------4------9------4------9------4------9-------8--|
D-------------------------------------------------------|
A-------------------------------------------------------|
D-------------------------------------------------------|


Chorus x2
"We are the energy..."
e-------------------------------------------------------|
B-------------------------------------------------------|
G-------------------------------------------------------|
D--2---0-2-0-2----0-2-5-2-0-----------------------------|
A--2---0-2-0-2----0-2-5-2-0-----------------------------|
D--2---0-2-0-2----0-2-5-2-0-----------------------------|

e-------------------------------------------------------|
B-------------------------------------------------------|
G-------------------------------------------------------|
D--7---5-7---5----5-4-5-4-0-----------------------------|
A--7---5-7---5----5-4-5-4-0-----------------------------|
D--7---5-7---5----5-4-5-4-0-----------------------------|

e-------------------------------------------------------|
B-------------------------------------------------------|
G-------------------------------------------------------|
D--2---0-2-0-2----0-2-5-2-0-----------------------------|
A--2---0-2-0-2----0-2-5-2-0-----------------------------|
D--2---0-2-0-2----0-2-5-2-0-----------------------------|

e-------------------------------------------------------|
B--12p10--12p10--12p10----------------------------------|
G----------------------9-9-9-9-9-9-(7)------------------|
D-------------------------------------------------------|
A--replace the (7) with 9 on the 2nd time through-------|
D-------------------------------------------------------|


Verse x1
"Every now and then i dream about you..."
e-------------------------------------------------------------|
B-------------------------------------------------------------|
G--------------------------------------------------------5-5--|
D--2-2-2-2-2-2-2---5-5-5-5-5-5-5-5-5-5---0-0-0-0-0-0-2-2-5-5--|
A--2-2-2-2-2-2-2---5-5-5-5-5-5-5-5-5-5---0-0-0-0-0-0-2-2-3-3--|
D--2-2-2-2-2-2-2---5-5-5-5-5-5-5-5-5-5---0-0-0-0-0-0-2-2------|
                        this riff all palm muted except  ^ ^
e----------------------------------------------------------|
B----------------------------------------------------------|
G----------------------------------------------------------|
D--2--2-2----0--0-0----0-0-----5-7-5-7-5-7-5-7-77-55-------|
A--2--2-2----0--0-0----0-0-----5-7-5-7-5-7-5-7-77-55-------|
D--2--2-2----0--0-0----0-0-----5-7-5-7-5-7-5-7-77-55-------|

e----------------------------------------------------------|
B----------------------------------------------------------|
G---------------------------------------------------5-5-5--|
D--2--2-2----5--5-5----5-5-5----0---0-0----0-7-0-7--5-5-5--|
A--2--2-2----5--5-5----5-5-5----0---0-0----0-7-0-7--3-3-3--|
D--2--2-2----5--5-5----5-5-5----0---0-0----0-7-0-7---------|

e----------------------------------------------------------|
B----------------------------------------------------------|
G----------------------------------------------------------|
D--2--2-2----0--0-0----0-0-0----5---5-5-----7--------------|
A--2--2-2----0--0-0----0-0-0----5---5-5-----7--------------|
D--2--2-2----0--0-0----0-0-0----5---5-5-----7--------------|


Prechorus
Chorus
Solo
e----------------------------------------------------------|
B--5-------------------------------------------------------|
G----7------------7---------------------7-9---7-9----------|
D------7b---5-7-5---7b---5-7-9------9-9-----9--------------|
A----------------------------------------------------------|
D----------------------------------------------------------|

e----------------------------------------------------------|
B--5------------------------10b12b12-----------------------|
G----7------------7----------------------------------------|
D------7b---5-7-5---7b---5-7-------------------------------|
A----------------------------------------------------------|
D----------------------------------------------------------|

e----------------------------------------------------------|
B--5-------------------------------------------------------|
G----7------------7------------------7---9b11r9-7-9b11r9---|
D------7b---5-7-5---7b---5-7-9-----9---9-------------------|
A----------------------------------------------------------|
D----------------------------------------------------------|

e----------------------------------------------------------|
B--5--------------------------12-10-12-10-12-10-12-10-12-10|
G----7------------7----------------------------------------|
D------7b---5-7-5---7b---5-7-9-----------------------------|
A----------------------------------------------------------|
D----------------------------------------------------------|

Chorus

Outro
"Cause I'm not dying..."
e-------------------------------------------------------|
B-------------------------------------------------------|
G--5-5-5-5-5-5-5-5---7-7-7-7-7-7-7-7--------------------|
D--5-5-5-5-5-5-5-5---7-7-7-7-7-7-7-7--------------------|
A--3-3-3-3-3-3-3-3---5-5-5-5-5-5-5-5--------------------|
D-------------------------------------------------------|

e-------------------------------------------------------|
B-------------------------------------------------------|
G--5-5-5-5-5-5-5-5---7-7-7-7-7-7-7-7--------------------|
D--5-5-5-5-5-5-5-5---7-7-7-7-7-7-7-7---2----------------|
A--3-3-3-3-3-3-3-3---5-5-5-5-5-5-5-5---2----------------|
D--------------------------------------2----------------|
Suggest correction
comments
print report bad tab
4 comments total. Showing first comments.
0 reply
kurt_cobain_fan 10 Jul 30, 2002 12:00 AM

this tab is awesome 100%i gave it a 5!!!1

0 reply
kurt_cobain_fan 10 Jul 30, 2002 12:00 AM

this tab is awesome 100%i gave it a 5!!!1

0 reply
kurt_cobain_fan 10 Jul 30, 2002 12:00 AM

this tab is awesome 100%i gave it a 5!!!1

guest
You may want to rate the tab now too:
select rating
Wanna post a correction for this tab? Suggest correction