Oops, an error
Loading. Please wait.

When I Drown bass

48 views 1 this week
no commentswrite comment
1 2 3 4 5
3 more votes to show rating
add to favorites
×
Save as Personal and add changes to this tab that will be seen only by you. Learn more ›
×
You can save this tab as Personal to edit and correct it or add notes. All changes will be seen only by you. Learn more »
launch autoscroll
font size
0
reset
guitar tuner
edit
Autoscroll
slow
fast
+/-
esc
set tempo
stop
Author
Difficulty
Audiovent - When I drown

bass tab

by : doky 2006
taquilleros_de_sudamerica_maroyu_el_grupo_tropical_del_momento@hotmail.com

5-stringed bass
G D A E B


	   A.
	   |
.......................
.		      .
|---------------------|--------|
|---------------------|--------|
|---------------------|--------|
|-5----3--------------|-3------|
|-----------6----5----|--------|
	            x2       x1

|-8-8-88----------------------|-------------------------------------|
|--------8-8-88-6-6-66--------|-10-10-1010-8-8-88-6-6-66-5-5-55-10--|
|----------------------4-4-44-|-------------------------------------|
|-----------------------------|-------------------------------------|
|-----------------------------|-------------------------------------|
			    x1					  x1

|-----------------|----------|
|-----------------|----------|
|-8--10--8-6------|- + A. + -|
|------------8----|----------|
|--------------56-|----------|
		x1	   x2

|--------------------------------|
|--------------------------------|
|--------------------------------|
|--------------------------------|
|-10-10-1010-12-6-6-66-3----6----|
			       x1

|--------------------------------|
|--------------------------------|
|----------------------5---------|
|---------------------------6----|
|-10-10-1010-12-6-6-66-----------|
			       x1

|--------------------------------|
|--------------------------------|
|--------------------------------|
|---------------------------6----|
|-10-10-1010-12-6-6-66-3---------|
			       x1

|---------------------|-----------------------|
|---------------------|-----------------------|
|---------------------|--------------55555555-|
|-9----7----5----4----|-9----7----5-----------|
|---------------------|-----------------------|
		    x1			    x1

|---------------------|---------------------|
|---------------------|-8----6--------------|
|---------------------|---------------------|
|-6----4--------------|---------------------|
|-----------7----6----|-----------7----6----|
		    x2			  x1

|--------------------------------|
|--------------------------------|
|--------------------------------|
|-6----4-------------------------|
|---------------7----------------|
			       x1

(toda la estructura es toda la cancion)

esta cancion recio es, y como es recio lo he sacado como he podido ps cuaaate. ya ahora
voy a mandar saludos al club de fans de Maroyu de mi colegio, yo hera presidente pues y
no habian muchos fans, yo no mas creo que era.

            
            
Suggest correction
Creating personal tab
Creating personal tab
You can edit any tab online and save it as your Personal.

You can edit, replace or remove any tab part or add personal notes – all changes will be seen only by you.

Personal tabs can be accessed anytime from any device, even offline.
Learn more »
Give kudos to tab author, rate the tab!
1 2 3 4 5
comments
print report bad tab
guest
You may want to rate the tab now too:
select rating
Wanna post a correction for this tab? Suggest correction