Oops, an error
Loading. Please wait.

Moon River tab

version 1
version 1

Whole song

Interactive

39,626 views 105 this week
5 commentsread comments
1 2 3 4 5
x 24
add to favorites
×
Save as Personal and add changes to this tab that will be seen only by you. Learn more ›
×
You can save this tab as Personal to edit and correct it or add notes. All changes will be seen only by you. Learn more »
launch autoscroll
font size
0
reset
how to read this tab
guitar tuner
edit
Autoscroll
slow
fast
+/-
esc
set tempo
stop
Author
Difficulty
intermediate
Moon River sung by Audrey Hepburn from Breakfast at Tiffany's.

This is how I hear it, but I believe it's closer to the original than the others out
there :)
I transcribe it in the key of F, so music in the video is sharper by ~70 cents.

--- Moon River ---
music by Henry Mancini
lyrics by Johnny Mercer

    F    Dm     Bb           F/A
e|-(1)---1------1------------1---|
B|-(1)---3------3------------1---|
G|--2----2------3------------2---|
D|--3----0------3------------3---|
A|--3-----------1------------0---|
E|--1----------------------------|
   Moon River, wider than a mile,

        Bb             F/A     Em7b5 A7
e|------1---------------1--------3---5---|
B|------3---------------1--------3---5---|
G|------3---------------2--------3---6---|
D|------3---------------3--------2---5---|
A|------1---------------0------------0---|
E|-------------------------------0-------|
  I'm crossing you in style someday.

        Dm   F7         Bb     D#7
e|------5----5----------1------6---|
B|------6----4----------3------8---|
G|------7----5----------3------6---|
D|------7----3----------3------8---|
A|------5----3----------1------6---|
E|---------------------------------|
  Old dream maker, you heart breaker,

      Dm        Dm/B E7    Am7 D7     Gm7 C7
e|----1-----------1--0------0--2------(3)-----|
B|----3-----------3--3------1--1-------3--1---|
G|----2-----------2--1------0--2-------3--3---|
D|----0--------------2------2--0-------3--2---|
A|----------------2-(2)-----0----------5--3---|
E|-------------------------------------3------|
  Wherever you're going I'm going your way.


    F   Dm     Bb              F/A
e|-(1)--1------1---------------1---|
B|-(1)--3------3---------------1---|
G|--2---2------3---------------2---|
D|--3---0------3---------------3---|
A|--3----------1---------------0---|
E|--1------------------------------|
  Two drifters off to see the world;

           Bb           F/A     Em7b5 A7
e|---------1-------------1--------3---5---|
B|---------3-------------1--------3---5---|
G|---------3-------------2--------3---6---|
D|---------3-------------3--------2---5---|
A|---------1-------------0------------0---|
E|--------------------------------0-------|
  There's such a lot of world to see.

        Dm  Dm/C  Dm/B Dm/A#     F/A
e|------1----1-----1----1--------1--|
B|------3----3-----3----3--------1--|
G|------2----2-----2----2--------2--|
D|------0------------------------3--|
A|-----------3-----2----1--------0--|
E|----------------------------------|
  We're after the same rainbow's end,

    Bb                   F/A
e|--1---------------------1---|
B|--3---------------------1---|
G|--3---------------------2---|
D|--3---------------------3---|
A|--1---------------------0---|
E|----------------------------|
      Waiting 'round the bend,

    Bb                F/A
e|--1------------------1---|
B|--3------------------1---|
G|--3------------------2---|
D|--3------------------3---|
A|--1------------------0---|
E|-------------------------|
      My huckleberry friend,

    Dm   Gm  C     Bb  F/A    Gm    F
e|--1----3---0-----1----1-----------1---|
B|--3----3---1-----3----1-----3-----1---|
G|--2----3---0-----3----2-----3-----2---|
D|--0----5---2-----3----3-----0-----3---|
A|-------5---3-----1----0-----------3---|
E|-------3--------------------3-----1---|
   Moon River and me.


Transcribed by Pavel Alexeev

            
            
Suggest correction
Creating personal tab
Creating personal tab
You can edit any tab online and save it as your Personal.

You can edit, replace or remove any tab part or add personal notes – all changes will be seen only by you.

Personal tabs can be accessed anytime from any device, even offline.
Learn more »
comments
print report bad tab
5 comments total. Showing first comments.
+3 reply
lukestanley7 141 Jul 23, 2013 03:13 AM

Fantastic transcription, spot on!

+1 reply
cooldad2009 29 Aug 23, 2016 02:21 AM

thank you!!!!!!!!!!!!!!!!!!

+1 reply
sustolrules1 51 Nov 16, 2016 02:14 PM

Finally a right tab for this song. Thank you.

guest
You may want to rate the tab now too:
select rating
Wanna post a correction for this tab? Suggest correction