Oops, an error
Loading. Please wait.

Redemption Blues tab

28 views 21 this week
1 commentread comment
1 2 3 4 5
2 more votes to show rating
add to favorites
×
Save as Personal and add changes to this tab that will be seen only by you. Learn more ›
×
You can save this tab as Personal to edit and correct it or add notes. All changes will be seen only by you. Learn more »
launch autoscroll
font size
0
reset
how to read this tab
guitar tuner
edit
Autoscroll
slow
fast
+/-
esc
set tempo
stop
AUDREY HORNE - REDEMPTION BLUES (from the album Youngblood, 2013) © Audrey Horne

[Intro]
  Gtr. 1
D|-----------------------------------------|
A|-----------------------------------------|
F|-----4/5------2--------4/5---------------|
C|-2---4/5--5---2----2---4/5---5----2~-----|   x2
G|-2---2/3--5---0----2---2/3---5-5--2~-----|
D|-0--------3--------0---------3-2--0~-----| 
  Gtr. 2
D|----------------------------------------------------------------------------|
A|---8---10---8----7h8-----7h8---------8---10---8----7h8p7--------------------|
F|-9---9----9---9------9-------9-----9---9----9---9--------9------7/9---7/9---|
C|-----------------------9-------9---------------------------9----------------|  x4
G|----------------------------------------------------------------------------|
D|----------------------------------------------------------------------------|
  Gtr. 3
D|----------------------------------------------------------------------------|
A|---3---5---3----2h3------2h3---------3---5---3-----2h3p2--------------------|
F|-4---4---4---4------4--------4-----4---4---4---4---------4------2/4---2/4---|
C|----------------------4--------4---------------------------4----------------|  x2
G|----------------------------------------------------------------------------|
D|----------------------------------------------------------------------------|
  Gtr. 3
D|---7---8---7----5h7------5h7---------7---8---7-----5h7p5--------5/7---5/7---|
A|-8---8---8---8------8-5------8-5---8---8---8---8---------8-5----------------|
F|----------------------------------------------------------------------------|
C|----------------------------------------------------------------------------|  x1  
G|----------------------------------------------------------------------------|
D|----------------------------------------------------------------------------|
  Gtr. 3
D|----10----12----10-----9h10---------9h10-------------10----12----10------9h10p9-------------------------|
A|-12----12----12----12-------12-----------12-------12----12----12----12----------12------10/12---10/12---|
F|-------------------------------11-----------11-------------------------------------11-------------------|
C|--------------------------------------------------------------------------------------------------------| x1
G|--------------------------------------------------------------------------------------------------------|
D|--------------------------------------------------------------------------------------------------------|

  Gtr. 1 & 2
D|------------------------------------------------------------------------------------------------|
A|------------------------------------------------------------------------------------------------|
F|------------------------------------------------------------------------------------------------|
C|---------------------0h2-2----------------------0h2-2--------5-----4----------------------------|  x2
G|-------------------------------------------------------3-3-3---3-3---3-3--3-2-0--5-5-5-5-5-5----|
D|-0-0-0--3-0-0--2-0-0--------0-0-0--3-0-0--2-0-0----------------------------------3-3-3-2-2-2----|

[Verse 1]
  Good god, it must have been a poison...
D|------------------------------------------------------------------------------------------------|
A|------------------------------------------------------------------------------------------------|
F|------------------------------------------------------------------------------------------------|
C|-2-2-2--5-2-2--4-2-2--0h2-2--2-2-2--5-2-2--4-2-2--0h2-2--------5-----4--------------------------|  x2
G|---------------------------------------------------------3-3-3---3-3---3-3--3-2-0--5-5-5-5-5-5--|
D|-----------------------------------------------------------------------------------3-3-3-2-2-2--|

[Chorus]
  I´m going nowhere...
D|---------------------------------------------------------------------------|
A|---------------------------------------------------------------------------|
F|-----5---7----5---7----9---5--7----5---7-----------------------------------|
C|-2---5---7----5---7----9---5--7----5---7-----------------------------------|
G|-2---3---5----3---5----7---3--5----3---5-----------------------------------|
D|-0-------------------------------------------------------------------------|

D|---------------------------------------------------------------------------|
A|---------------------------------------------------------------------------|
F|------------------------------------5-5-5--7-7-7---------------------------|
C|-2-2-2--5-2-2--4-2-2--0h2-2-[x3]----5-5-5--7-7-7---------------------------|
G|------------------------------------3-3-3--5-5-5---------------------------|
D|---------------------------------------------------------------------------|

[Verse 2]
  These bones of mine are dressed to kill now...
D|---------------------------------------------------------------------------|
A|---------------------------------------------------------------------------|
F|---------------------------------------------------------------------------|
C|---------------------------------------------------------------------------|
G|---------------------------------------------------------------------------|
D|---------------------------------------------------------------------------|

  I made myself what I am now...
D|---------------------------------------------------------------------------|
A|-3h5-0--8p7-0--5-0-0--3h5-0-[x3]--3h5-0--8p7-0-----------------------------|
F|-----------------------------------------------9-7-------------------------|  x2
C|---------------------------------------------------9-7---------------------|
G|-------------------------------------------------------10-7----------------|
D|---------------------------------------------------------------------------|

[Chorus]
  I´m going nowhere...
D|---------------------------------------------------------------------------|
A|---------------------------------------------------------------------------|
F|-----5---7----5---7----9---5--7----5---7-----------------------------------|
C|-2---5---7----5---7----9---5--7----5---7-----------------------------------|  x2
G|-2---3---5----3---5----7---3--5----3---5-----------------------------------|
D|-0-------------------------------------------------------------------------|

[Interlude]
  We're hangin' out by the gallows pole...
D|---------------------------------------------------------------------------|
A|---------------------------------------------------------------------------|
F|-2-2-0-2-2--5-5-5-4-5-5----------------------------------------------------|
C|-2-2-0-2-2--5-5-5-5-5-5----------------------------------------------------|
G|-0-0-0-0-0  3-3-3-3-3-3----------------------------------------------------|
D|---------------------------------------------------------------------------|

  We're hangin' out at the end of the rope...
D|---------------------------------------------------------------------------|
A|---------------------------------------------------------------------------|
F|-22022--555455----7777-----------------------------------------------------|
C|-22022--555555----7777-----------------------------------------------------|
G|-00000--333333----5555-----------------------------------------------------|
D|---------------------------------------------------------------------------|

[Interlude]
D|-----------------------------------------------------------------------------------------------------------|
A|-----------------------------------------------------------------------------------------------------------|
F|-----------------------------------------------------------------------------------------------------------|
C|-----------------------------------------------------------------------------------------------------------|
G|12-0-0-0-0-0-10-0-12-0-13-0-12-0-0-0-0-0-15-0-13-0-12-0-13-0-0-10-0-0-12-0-0-13-0-0-12-0-0-8-0-0-10-0-8-0-7|
D|-----------------------------------------------------------------------------------------------------------|

                                D|---------------------------------------------------------------------------|
                                A|---------------------------------------------------------------------------|
                                F|---------------------------------------------------------------------------|
                                C|---------------------------------------------------------------------------|
                                G|----repeat-----2nd time ending-----------12-0-0-8-0-0-10-8-7--8-7----------|
                                D|------------------------------------------------------------------10-------|

D|-----------------------------------------------------------------------------------------------------------|
A|-----------------------------------------------------------------------------------------------------------|
F|-----------------------------------------------------------------------------------------------------------|
C|-----------------------------------------------------------------------------------------------------------|
G|-----------------------------------------------------------------------------------------------------------|
D|12-0-0-0-0-0-10-0-12-0-13-0-12-0-0-0-0-0-15-0-13-0-12-0-13-0-0-10-0-0-12-0-0-13-0-0-12-0-0-8-0-0-10-0-8-0-7|

                                D|---------------------------------------------------------------------------|
                                A|---------------------------------------------------------------------------|
                                F|---------------------------------------------------------------------------|
                                C|---------------------------------------------------------------------------|
                                G|----repeat-----2nd time ending---------------------------------------------|
                                D|-----------------------------------------12-0-0-8-0-0-10-8-7--8-7-5--------|

[Chorus]
  I´m going nowhere...
D|---------------------------------------------------------------------------|
A|---------------------------------------------------------------------------|
F|-----5---7----5---7----9---5--7----5---7-----------------------------------|
C|-2---5---7----5---7----9---5--7----5---7-----------------------------------|  x2
G|-2---3---5----3---5----7---3--5----3---5-----------------------------------| 
D|-0-------------------------------------------------------------------------|

[Outro]
D|---------------------------------------------------------------------------|
A|---------------------------------------------------------------------------|
F|---------------------------------------------------------------------------|
C|-2-2-2--5-2-2--4-2-2--0h2-2-[x3]----5-4-2--4-2---2----------------2-2------|
G|-----------------------------------------------5---5-3--5-3-2-----2-2------|
D|------------------------------------------------------------------0-0------|



************************************

| /  Slide up
| ~  Vibrato
| h  Hammer-on
| p  Pull-off
 

************************************

            
            
Suggest correction
Creating personal tab
Creating personal tab
You can edit any tab online and save it as your Personal.

You can edit, replace or remove any tab part or add personal notes – all changes will be seen only by you.

Personal tabs can be accessed anytime from any device, even offline.
Learn more »
Give kudos to tab author, rate the tab!
1 2 3 4 5
comments
print report bad tab
1 comment total.
0 reply
JeffEldorado 32 Aug 09, 2017 06:34 AM

I did not figure the solo yet, so if you can help me, just leave a commment or send me a mail. Thanks!

guest
You may want to rate the tab now too:
select rating
Wanna post a correction for this tab? Suggest correction