Oops, an error
Loading. Please wait.

1162011 Tab

version 1
version 1

Whole song

Interactive

2,008 views 3 this week
1 commentread comment
1 2 3 4 5
excellent!
x 4
add to favorites
launch autoscroll
font size
0
reset
how to read this tab
guitar tuner
Autoscroll
slow
fast
+/-
esc
set tempo
stop
Help us to improve Ultimate-Guitar.com Take our survey!
×
Difficulty
Tuning
intermediate
C G C F A D
Title: 1/16/2011
Artist: August Burns Red
Album: Leveler
Lead Guitar
Drop C
Legend
L - tied note
x - dead note
h - hammer on/pull off
b - bend
s - slide
~ - vibrato
g - ghost note
> - accentuated note
t - trill
M - palm mute
. - staccato
P - popping (bass)
S - slapping (bass)
+ - tapping
W - wide vibrato
< - fade in
w - whammy bar
= - tremolo picking
v - brush up
^ - brush down
V - pick stroke up
n - pick stroke down


D |-------|-------|-------|-------|-------|-------|-------|-------|
A |-------|-------|-------|-------|-------|-------|-------|-------|
F |-------|-------|-------|-------|-------|-------|-------|-------|
C |-------|-------|-------|-------|-------|-------|-------|-------|
G |-------|-------|-------|-------|-------|-------|-------|-------|
C |-------|-------|-------|-------|-------|-------|-------|-------|


----------------------------|-------|----------------|-------|
----------------------------|-------|----------------|-------|
----------------------------|-------|--2--------2s---|--5----|
--3L----------------3--2----|--3----|--3--------3s---|--7----|
--5L----------------5--3----|--5----|----------------|-------|
----------------------------|-------|----------------|-------|


----------------------------|----------|--18s17---------------------|
-----------------------10L--|--10-13s--|--------18------------------|
--5s-7--10-10----10-10-10L--|--10-10s--|-----------19-15s17s15------|
--7--7--10-10----10-8-------|----------|-----------------------19---|
----------------------------|----------|----------------------------|
----------------------------|----------|----------------------------|


----------------------------|--13L---------------13~13---|
----------------------------|----------------------------|
----------------------------|----------------------------|
--14b------12-------12~-----|----------------------------|
-----------------15---------|----------------------------|
----------------------------|----------------------------|


--13s12---------------------|----------------------------|
--------13------------------|----------------------------|
-----------14-10s9----------|-----------------------10---|
--------------------10------|--10L---------------10~12---|
-----------------------12---|----------------------------|
----------------------------|----------------------------|

                                                               ^
----------------------------|-----------------------13L--|--13-17---|-------|
----------------------------|--------------------15------|-----18---|-------|
--10s12-12-14----14-14~-----|--12-14s17-------17---------|-----17---|-------|
--12s14-14-15----15-15~-----|----------------------------|----------|-------|
----------------------------|----------------------------|----------|-------|
----------------------------|----------------------------|----------|-------|


-------||
-------||
-------||
-------||
-------||
-------||



__________________________________________________
__________________________________________________
__________________________
Title: 1/16/2011
Artist: August Burns Red
Album: Leveler
Rhythm Guitar
Drop C

Legend
L - tied note
x - dead note
h - hammer on/pull off
b - bend
s - slide
~ - vibrato
g - ghost note
> - accentuated note
t - trill
M - palm mute
. - staccato
P - popping (bass)
S - slapping (bass)
+ - tapping
W - wide vibrato
< - fade in
w - whammy bar
= - tremolo picking
v - brush up
^ - brush down
V - pick stroke up
n - pick stroke down

The whole time you let these notes ring out till the end of the song
D |----------------------------|----------------------------|
A |----------------------------|----------------------------|
F |-----------10---------------|-----------10---------------|
C |--------8-----8-----8-------|--------8-----8-----8-------|
G |-----12----------12----12---|-----12----------12----12---|
C |--0-------------------------|--0-------------------------|


----------------------------|
----------------------------|
-----------10---------------|
--------8-----8-----8-------|
-----12----------12----12---|
--10------------------------|


----------------------------------------------------|
----------------------------------------------------|
--------------------10----------------10s12s10------|
--------------8-----------8-------------------------|
--------12----------------------12------------------|
--10------------------------------------------------|


----------------------------|----------------------------|
----------------------------|----------------------------|
-----------10---------------|-----------10---------------|
--------12----12----12------|--------12----12----12------|
-----8-----------8-----8----|-----8-----------8-----8----|
--8-------------------------|--8-------------------------|


----------------------------|
----------------------------|
-----------10---------------|
--------12----12----12------|
-----0-----------0-----0----|
--0-------------------------|


----------------------------------------------------|
----------------------------------------------------|
--------------------10----------------10s9s-10------|
--------------12----------12------------------------|
--------0-----------------------0-------------------|
--0-------------------------------------------------|


----------------------------|----------------------------|
----------------------------|----------------------------|
-----------10---------------|-----------10---------------|
--------8-----8-----8-------|--------8-----8-----8-------|
-----12----------12----12---|-----12----------12----12---|
--0-------------------------|--0-------------------------|


----------------------------|
----------------------------|
-----------10---------------|
--------8-----8-----8-------|
-----12----------12----12---|
--10------------------------|


----------------------------------------------------|
----------------------------------------------------|
--------------------10----------------10s12s10------|
--------------8-----------8-------------------------|
--------12----------------------12------------------|
--10------------------------------------------------|


----------------------------|----------------------------|
----------------------------|----------------------------|
-----------10---------------|-----------10---------------|
--------12----12----12------|--------12----12----12------|
-----8-----------8-----8----|-----8-----------8-----8----|
--8-------------------------|--8-------------------------|


----------------------------|
----------------------------|
-----------10---------------|
--------12----12----12------|
-----0-----------0-----0----|
--0-------------------------|


----------------------------------------------------|
----------------------------------------------------|
--------------------10----------------10s9s-10------|
--------------12----------12------------------------|
--------0-----------------------0-------------------|
--0-------------------------------------------------|


----------------------------|----------------------------|
----------------------------|----------------------------|
-----------10---------------|-----------10---------------|
--------8-----8-----8-------|--------8-----8-----8-------|
-----12----------12----12---|-----12----------12----12---|
--0-------------------------|--0-------------------------|


----------------------------|
----------------------------|
-----------10---------------|
--------8-----8-----8-------|
-----12----------12----12---|
--10------------------------|


----------------------------------------------------|
----------------------------------------------------|
--------------------10----------------10s12s10------|
--------------8-----------8-------------------------|
--------12----------------------12------------------|
--10------------------------------------------------|


----------------------------|----------------------------|
----------------------------|----------------------------|
-----------10---------------|-----------10---------------|
--------12----12----12------|--------12----12----12------|
-----8-----------8-----8----|-----8-----------8-----8----|
--8-------------------------|--8-------------------------|

                               ^
----------------------------|--10---||
----------------------------|--10---||
-----------10---------------|--10---||
--------12----12----12------|--12---||
-----0-----------0-----0----|--0----||
--0-------------------------|--0----||
Suggest correction
What's this?
You can suggest a correction to this tab. Community and Mods will review your correction and vote to approve or reject it.
comments
print report bad tab
1 comment total.
0 reply
Acoustic_Man_ 612 wrote on January 7 2013, 09:50 am

Seems Right

guest
You may want to rate the tab now too:
select rating
Please do not post tabs as comments. Select "correction" instead!