Oops, an error
Loading. Please wait.

Baby One More Time Bass Tab

version 1
version 1

Whole song

Interactive

1,763 views 1 this week
no commentswrite comment
1 2 3 4 5
please rate
add to favorites
launch autoscroll
font size
0
reset
guitar tuner
Tab Pro tools
  • play this tab
  • loop segment
  • change instrument
  • show fretboard
  • metronome
×
Best way to learn
"Baby One More Time"
Autoscroll
slow
fast
+/-
esc
set tempo
stop
Contributor
#----------------------------------PLEASE NOTE---------------------------------#
#This file is the author's own work and represents their interpretation of the #
#song. You may only use this file for private study, scholarship, or research. #
#------------------------------------------------------------------------------#

(Bassline)



	



Gtr I (C G C F) - 'Untitled'

    Q=190
    Gtr I
     Q   Q   Q  S S S S Q  S S S S Q.   Q  E S S S S Q   S S S S Q  S S S S Q.
||---------------------------------------------------------------------------------||
||o-------------------------------------------------------------------------------o||
||o-------------------------------------------------------------------------------o||
||--10--12--12--0-0-0-0-0--0-0-0-0-0----0--0-0-0-0-0-0---0-0-0-0-0--0-0-0-0-0------||


   Q   Q   Q  W
|---------------|
|---------------|
|---------------|
|-10--12--12--0-|


   X.  X  X  X  X  X  X  X  X  X  X  X  X  X  X X X X X X X X X X
|--------------------------------------------------------------------|
|--------------------------------------------------------------------|
|--------------------------------------------------------------------|
|-24--23-22-21-20-19-18-17-16-15-14-13-12-11-10-9-8-7-6-5-4-3-2-1----|


    E E E E E E E E E E E E E E E E E E E E E E E E E E E E E E E E
||--------------------------------------------------------------------|
||o-------------------------------------------------------------------|
||o---------------------------------3-3-0-0-0-0-0-0-------------------|
||--0-0-0-0-0-0-0-0-0-0-0-0-2-2-3-3-----------------0-0-0-0-5-5-7-7---|


  E E E E E E E E E E E E E E E E E E E E E E E E E E E E E E E E
|---------------------------------------------------------------------||
|--------------------------------------------------------------------o||
|--------------------------------------------------------------------o||
|-3-3-3-3-3-3-5-3-2-3-3-3-5-3-3-3-5-5-5-5-5-5-5-5-7-7-8-8-7-7-5-5-----||


  E E E E E E E E E E E E E E E E E E E E E E E E E E E E E E E E
|--------------------------------------------------------------------|
|--------------------------------------------------------------------|
|--------------------------------------------------------------------|
|-3-3-3-3-3-3-3-3-3-3-3-3-5-5-3-3-2-2-2-2-2-2-2-2-2-2-2-2-0-0-2-2----|


  E E E E E E E E E E E E  E  E E E E E E E E E E E W
|--------------------------------------------------------|
|--------------------------------------------------------|
|--------------------------------------------------------|
|-8-8-8-8-8-8-8-8-8-8-8-8-10-10-8-8-7-7-7-7-7-7-7-7-7----|


    E E E E E E E E E E E E E E E E E E E E E E E E E E E E E E E E
||--------------------------------------------------------------------|
||o-------------------------------------------------------------------|
||o-------------------------------------------------3-3-3-3-7-7-7-7---|
||--0-0-0-0-0-0-0-0-0-0-0-0-0-0-0-0-0-0-0-0-0-0-0-0-------------------|


  E E E E E E E E E E E E E E E E  E  E  E  E  E  E  E  E  E  E  E  E  E  E  E  E
|-------------------------------------------------------------------------------------||
|------------------------------------------------------------------------------------o||
|-8-8-8-8-8-8-8-8-8-8-8-8-8-8-8-8-10-10-10-10-10-10-10-10-12-12-12-12-13-13-13-13----o||
|-------------------------------------------------------------------------------------||


    E E E E E E E E   E E E E E E E E   E E E E E E E E   E E E E E E E E
||------------------|-----------------|-----------------|----------------|
||o-----------------|-----------------|-----------------|----------------|
||o-----------------|-----------------|-3-3-0-0-0-0-0-0-|----------------|
||--0-0-0-0-0-0-0-0-|-0-0-0-0-2-2-3-3-|-----------------|-0-0-0-0-5-5-7-7|


  E E E E E E E E   E E E E E E E E   E E E E E E E E   E E E E E E E E
|-----------------|-----------------|-----------------|------------------||
|-----------------|-----------------|-----------------|-----------------o||
|-----------------|-----------------|-----------------|-----------------o||
|-3-3-3-3-3-3-5-3-|-2-3-3-3-5-3-3-3-|-5-5-5-5-5-5-5-5-|-7-7-8-8-7-7-5-5--||


  E E E E E E E E   E E E E E E E E   E E E E E E E E   E E E E E E E E
|-----------------|-----------------|-----------------|-----------------|
|-----------------|-----------------|-----------------|-----------------|
|-----------------|-----------------|-----------------|-----------------|
|-3-3-3-3-3-3-3-3-|-3-3-3-3-5-5-3-3-|-2-2-2-2-2-2-2-2-|-2-2-2-2-0-0-2-2-|


  E E E E E E E E   E E E E  E  E E E   E E E E E E E E   W
|-----------------|-------------------|-----------------|------|
|-----------------|-------------------|-----------------|------|
|-----------------|-------------------|-----------------|------|
|-8-8-8-8-8-8-8-8-|-8-8-8-8-10-10-8-8-|-7-7-7-7-7-7-7-7-|-7----|


    E E E E E E E E   E E E E E E E E   E E E E E E E E   E E E E E E E E
||------------------|-----------------|-----------------|------------------|
||o-----------------|-----------------|-----------------|------------------|
||o-----------------|-----------------|-----------------|-3-3-3-3-7-7-7-7--|
||--0-0-0-0-0-0-0-0-|-0-0-0-0-0-0-0-0-|-0-0-0-0-0-0-0-0-|------------------|


  E E E E E E E E   E E E E E E E E
|-----------------|-----------------|
|-----------------|-----------------|
|-8-8-8-8-8-8-8-8-|-8-8-8-8-8-8-8-8-|
|-----------------|-----------------|


   E  E  E  E  E  E  E  E    E  E  E  E  E  E  E  E
|-------------------------|--------------------------||
|-------------------------|-------------------------o||
|-10-10-10-10-10-10-10-10-|-12-12-12-12-13-13-13-13-o||
|-------------------------|--------------------------||


    S S S S Q  S S S S Q.     Q  E S S S S Q  S S
||--------------------------|---------------------|
||o-------------------------|---------------------|
||o-------------------------|---------------------|
||--0-0-0-0-0--0-0-0-0-0----|-0--0-0-0-0-0-0--0-0-|


  S S Q  S S S S Q.     Q   Q   Q     4x
|--------------------|----------------||
|--------------------|---------------o||
|--------------------|---------------o||
|-0-0-0--0-0-0-0-0---|-10--12--12-----||


  Q  Q  Q  Q Q Q Q      Q   Q   Q  Q  Q  Q  Q     Q  Q  Q  Q Q Q Q     Q  Q  Q  Q  Q  Q Q  Q
|----------7-----------------------9-----------------------2-----------------------3------------|
|-------0----0-----------------10----10-----------------3------3-------------5--------5---------|
|----0---------0-----------10--------------10--------3-------3------------5-----5-------5-------|
|-0--------------0-----10---------------10--------3--------------3-----5-------------------5----|


  Q  Q  Q  Q  Q  Q  Q  Q  Q  Q  Q  Q  Q  Q  Q  Q
|---------------------------------------------------|
|-------3-----------3-----------5-----------5-------|
|----3-----3-----3-----3-----5-----5-----5-----5----|
|-3-----------3-----------5-----------5-------------|


  Q  Q  Q  Q  Q  Q  Q  Q   Q   Q   Q   Q   Q   Q   Q  Q
|-----------------------------------------------------9----|
|-------7-----------7-------------10--------------10-------|
|----7-----7-----7-----7------10------10------10-----------|
|-7-----------7-----------10--------------10---------------|


  Q  Q  Q  Q  Q  Q  Q  Q  Q  Q  Q  Q  Q  Q  Q  Q
|---------------------------------------------------|
|-0-----------------0--------------0----------------|
|----------0--------------0-----------------0-------|
|----0--0-----0--0-----0-----0--0-----0--0-----0----|


  Q  Q  Q  Q  Q  Q  Q  Q  Q  Q  Q  Q  Q  Q  Q  Q
|---------------------------------------------------|
|-3-----------------------5-----------8-----7-------|
|----------3--------3-----------5-------------------|
|----3--3-----3--3-----3-----5-----5-----8-----7----|


  E E E E E E E E   E E E E E E E E
|-----------------|-----------------|
|-----8-------8---|-----8-------8---|
|---8---8---8---8-|---8---8---8---8-|
|-8-------8-------|-8-------8-------|


   E  E  E  E  E  E  E  E    E  E  E  E  E  E  E  E
|-------------------------|-------------------------|
|-------10----------10----|-------10----------10----|
|----10----10----10----10-|----10----10----10----10-|
|-10----------10----------|-10----------10----------|


  E E E E E E E E   E E E E E E E E   E E E E E E E E   E E E E E E E E
|-----------------|-----------------|-----------------|-----------------|
|-----8-------8---|-----8-------8---|-----5-------5---|-----3-------2---|
|---8---8---8---8-|---8---8---8---8-|---5---5---5---5-|---3---3---2---2-|
|-8-------8-------|-8-------8-------|-5-------5-------|-3-------2-------|


  E E E E E E E E   E E E E E E E E   E E E E E E E E   E E E E E E E E
|-----------------|-----------------|-----------------|-----------------|
|-----------------|-----------------|-----------------|-----------------|
|-----------------|-----------------|-----------------|-3-3-3-3-7-7-7-7-|
|-0-0-0-0-0-0-0-0-|-0-0-0-0-0-0-0-0-|-0-0-0-0-0-0-0-0-|-----------------|


  E E E E E E E E   E E E E E E E E
|-----------------|-----------------|
|-----------------|-----------------|
|-8-8-8-8-8-8-8-8-|-8-8-8-8-8-8-8-8-|
|-----------------|-----------------|


   E  E  E  E  E  E  E  E    E  E  E  E  E  E  E  E
|-------------------------|-------------------------|
|-------------------------|-------------------------|
|-10-10-10-10-10-10-10-10-|-12-12-12-12-13-13-13-13-|
|-------------------------|-------------------------|


  TPTPTPTPTPTPTPTP  TPTPTPTPTPTPTPTP  TPTPTPTPTPTPTPTP  TPTPTPTPTPTPTPTP
  E E E E E E E E   E E E E E E E E   E E E E E E E E   E E E E E E E E
|-----------------|-----------------|-----------------|-----------------|
|-----------------|-----------------|-----------------|-----------------|
|-----------------|-----------------|-----------------|-3-3-3-3-7-7-7-7-|
|-0-0-0-0-0-0-0-0-|-0-0-0-0-0-0-0-0-|-0-0-0-0-0-0-0-0-|-----------------|


  TPTPTPTPTPTPTPTP  TPTPTPTPTPTPTPTP
  E E E E E E E E   E E E E E E E E
|-----------------|-----------------|
|-----------------|-----------------|
|-8-8-8-8-8-8-8-8-|-8-8-8-8-8-8-8-8-|
|-----------------|-----------------|


   TP TP TP TP TP TP TP TP   TP TP TP TP TP TP TP TP
   E  E  E  E  E  E  E  E    E  E  E  E  E  E  E  E
|-------------------------|-------------------------|
|-------------------------|-------------------------|
|-10-10-10-10-10-10-10-10-|-12-12-12-12-13-13-13-13-|
|-------------------------|-------------------------|


  S S S S Q  S S S S Q.     Q  E S S S S Q  S S
|-------------------------|---------------------|
|-------------------------|---------------------|
|-------------------------|---------------------|
|-0-0-0-0-0--0-0-0-0-0----|-0--0-0-0-0-0-0--0-0-|


  S S Q  S S S S Q.      Q   Q   Q
|---------------------|-------------|
|---------------------|-------------|
|---------------------|-------------|
|-0-0-0--0-0-0-0-0----|-10--12--12--|


  >
  TP        TP
  W        +W         +W         +W
|---------------------------------------|
|---------------------------------------|
|---------------------------------------|
|-0--------(0)--------(0)--------(0)----|



Duration Legend
---------------
W - whole; H - half; Q - quarter; E - 8th; S - 16th; T - 32nd; X - 64th; a - acciaccatura
+ - note tied to previous; . - note dotted; .. - note double dotted
Uncapitalized letters represent notes that are staccato (1/2 duration)
Irregular groupings are notated above the duration line
Duration letters will always appear directly above the note/fret number it represents the
duration for.  Duration letters with no fret number below them represent rests.  Multi-
bar rests are notated in the form Wxn, where n is the number of bars to rest for.  Low
melody durations appear below the staff

Tablature Legend
----------------
 h   - hammer-on
 p   - pull-off
 b   - bend
 pb  - pre-bend
 r   - bend release (if no number after the r, then release immediately)
 /\  - slide into or out of (from/to "nowhere")
 s   - legato slide
 S   - shift slide
 - natural harmonic
[n]  - artificial harmonic
n(n) - tapped harmonic
 ~   - vibrato
 tr  - trill
 T   - tap
 TP  - trem. picking
 PM  - palm muting
\n/  - tremolo bar dip; n = amount to dip
 \n  - tremolo bar down
 n/  - tremolo bar up
/n\  - tremolo bar inverted dip
 =   - hold bend; also acts as connecting device for hammers/pulls
 <> - volume swell (louder/softer)
 x   - on rhythm slash represents muted slash
 o   - on rhythm slash represents single note slash

Misc Legend
-----------
 |  - bar
||  - double bar
||o - repeat start
o|| - repeat end
*|  - double bar (ending)
 :  - bar (freetime)
 $  - Segno
 &  - Coda
Tempo markers -  = BPM(8/16=s8/s16), where s8 = swing 8ths, s16 = swing 16ths

comments
We did not receive enough feedback on this tab! Please rate:
print report bad tab
1 2 3 4 5
I want to post or [tab]
guest
You may want to rate the tab now too:
select rating
Please do not post tabs as comments. Select "correction" instead!