Oops, an error
Loading. Please wait.

Baby One More Time Tab

version 1
version 1

Whole song

Interactive

13,502 views 3 this week
4 commentsread comments
1 2 3 4 5
accurate
x 4
add to favorites
launch autoscroll
font size
0
reset
how to read this tab
guitar tuner
Tab Pro tools
  • play this tab
  • loop segment
  • change instrument
  • show fretboard
  • metronome
×
Best way to learn
"Baby One More Time"
Autoscroll
slow
fast
+/-
esc
set tempo
stop
Contributor
Artist: August Burns Red
Song: Baby One More Time...
Album: Punk Goes Pop 2

Key:

.. = Palm Mute
t = Tremolo Picking
h= hammer-on


Intro
D||--------------------------------------------------------|
A||--------------------------------------------------------|
F||--------------------------------------------------------|
C||--------------------------------------------------------| 2X
G||-10---12-12---00000-000-000-0-00000-000-000-0-000-000---|
C||-10---12-12---00000-000-000-0-00000-000-000-0-000-000---|
                 ..... ... ... . ..... ... ... . ... ...

End On:

D||-----------|
A||-----------|
F||-----------|
C||-10---12---|
G||-10---12---|
C||-10---12---|


Verse
D||--------------------------------------------------------------|
A||--------------------------------------------------------------|
F||--------------------------------------------------------------|
C||-------------------------------------------------------5--7---|
G||-5-----5---5-----5---5-------5-8-7-3---0---0------------------|
C||---0-0---0---0-0---0---0-0-0---------0---0---0-0-0-0-0--------|
      . .   .   . .   .   . . .         .   .   . . . . . 

D||------------------------------------------------------------------|
A||------------------------------------------------------------------|
F||----------------------------------------------------------7--10---|
C||-3-----3---3-----3---3---3-------5---5---5---8---7----------------|
G||------------------------------------------------------------------|
C||---3-3---3---3-3---3---3---3-3-3---0---0---0---0----0-0-0---------|
      . .   .   . .   .   .   . . .   .   .   .   .    . . . 

D||--------------------------------------------------------------|
A||--------------------------------------------------------------|
F||--------------------------------------------------------------|
C||-------------------------------------------------------5--7---|
G||-5-----5---5-----5---5-------5-8-7-3---0---0------------------|
C||---0-0---0---0-0---0---0-0-0---------0---0---0-0-0-0-0--------|
      . .   .   . .   .   . . .         .   .   . . . . . 

D||----------------------------------------------------------------------|
A||----------------------------------------------------------------------|
F||----------------------------------------------------------------------|
C||-3-----3---3-----3---3---3-------5---5---5---8---7------10---12--12---|
G||--------------------------------------------------------10---12--12---|
C||---3-3---3---3-3---3---3---3-3-3---0---0---0---0---0-0--10---12--12---|
      . .   .   . .   .   .   . . .   .   .   .   .   . .


Pre-Chorus:
D||------------------------------------------------------|
A||------------------------------------------------------|
F||------------------------------------------------------|
C||----------------------------------12------------------|
G||-8t-10t-8t-7t-5t-7t-8t-10t-8t-12t----13~--10h12--8~---|
C||------------------------------------------------------|


Chorus: 2 Times
D||---------------------------------------------------------
A||---------------------------------------------------------
F||-7-7-7-7-7-7-7-7-7-7-7-7-7-7-7-7-7-7-7-7-5-5-5-5-9-9-9-9-
C||-x-x-x-x-x-x-x-x-x-x-x-x-x-x-x-x-x-x-x-x-x-x-x-x-x-x-x-x-
G||-5-5-5-5-5-5-5-5-5-5-5-5-5-5-5-5-5-5-5-5-3-3-3-3-7-7-7-7-
C||---------------------------------------------------------

D||---------------------------------------------|
A||---------------------------------------------|
F||-10-------12-------14-14-14-14-15-15-15-15---|
C||--x--------x--------x--x--x--x--x--x--x--x---|
G||--8-------10-------12-12-12-12-13-13-13-13---|
C||---------------------------------------------|
    (16x)    (8x)
Verse Again:
D||--------------------------------------------------------------|
A||--------------------------------------------------------------|
F||--------------------------------------------------------------|
C||-------------------------------------------------------5--7---|
G||-5-----5---5-----5---5-------5-8-7-3---0---0------------------|
C||---0-0---0---0-0---0---0-0-0---------0---0---0-0-0-0-0--------|
      . .   .   . .   .   . . .         .   .   . . . . . 

D||------------------------------------------------------------------|
A||------------------------------------------------------------------|
F||----------------------------------------------------------7--10---|
C||-3-----3---3-----3---3---3-------5---5---5---8---7----------------|
G||------------------------------------------------------------------|
C||---3-3---3---3-3---3---3---3-3-3---0---0---0---0----0-0-0---------|
      . .   .   . .   .   .   . . .   .   .   .   .    . . . 

D||--------------------------------------------------------------|
A||--------------------------------------------------------------|
F||--------------------------------------------------------------|
C||-------------------------------------------------------5--7---|
G||-5-----5---5-----5---5-------5-8-7-3---0---0------------------|
C||---0-0---0---0-0---0---0-0-0---------0---0---0-0-0-0-0--------|
      . .   .   . .   .   . . .         .   .   . . . . . 

D||----------------------------------------------------------------------|
A||----------------------------------------------------------------------|
F||----------------------------------------------------------------------|
C||-3-----3---3-----3---3---3-------5---5---5---8---7------10---12--12---|
G||--------------------------------------------------------10---12--12---|
C||---3-3---3---3-3---3---3---3-3-3---0---0---0---0---0-0--10---12--12---|
      . .   .   . .   .   .   . . .   .   .   .   .   . .


Pre-Chorus:
D||----------------------------------------------------|
A||----------------------------------------------------|
F||----------------------------------------------15~---|
C||----------------------------------12h13p12----------|
G||-8t-10t-8t-7t-5t-7t-8t-10t-8t-12t----------13-------|
C||----------------------------------------------------|


Chorus Again: 2 Times

Breakdown Played w/ Chorus 2nd Time Around:
D||----------------------------------------------------------------------------
A||----------------------------------------------------------------------------
F||----------------------------------------------------------------------------
C||----------------------------------------------------------------------------
G||-000---000---0--0-0--0--0-000---000---0--0-0--0--0-333---333---3--3-3--3--3-
C||-000---000---0--0-0--0--0-000---000---0--0-0--0--0-333---333---3--3-3--3--3-

----------------------------------|
----------------------------------|
----------------------------------|
----------------------------------|
-5-5-5-5-5-5-5-5-0---10--12--12---|
-5-5-5-5-5-5-5-5-0---10--12--12---|


Bridge Lead-In:
D||--------------------------------------------------------|
A||--------------------------------------------------------|
F||--------------------------------------------------------|
C||--------------------------------------------------------| 2X
G||-10---12-12---00000-000-000-0-00000-000-000-0-000-000---|
C||-10---12-12---00000-000-000-0-00000-000-000-0-000-000---|
                 ..... ... ... . ..... ... ... . ... ...

End On:
D||------|
A||------|
F||------|
C||--0---|
G||--0---|
C||--0---|


Interlude/Bridge:
D||------------------------------------------------------------------8--6--------------|
A||-------8-10-10~--------8-10-10~--------8-10-10--11-10-8---------8-------10--8-10~---|
D||-10-10-----------10-10-----------10-10------------------10~--10---------------------|
C||------------------------------------------------------------------------------------|
G||------------------------------------------------------------------------------------|
C||------------------------------------------------------------------------------------|

D||--------------------------------------------------------------------------|
A||-------8-10-10~---------8-10-10---11-10-11-10~----10-11-10-11-10-11-10~---|
F||-10-10------------10-10---------------------------------------------------|
C||--------------------------------------------------------------------------|
G||--------------------------------------------------------------------------|
C||--------------------------------------------------------------------------|


Chorus Again: 2 Times

Breakdown Played w/ Chorus 2nd Time Around Again (Rhythm is a tab bit diff. but same frets)

End On:
D||-------|
A||-------|
F||-------|
C||---0---|
G||---0---|
C||---0---|

This was done entirely by ear so give me a break on some parts, it's pretty close.
comments
print report bad tab
4 comments total. Showing first comments.
0 reply
xdays_ive_diedx wrote on March 9 2009, 09:15 pm

This has been resubmitted as an update on 3/9/09. Please wait until it is updated and rate again. Much better than this version. Thank you.

0 reply
Inhale.Breathe wrote on March 11 2009, 12:23 am

Can someone please make this into a protab? With the drums too, I'd like that very much!

+1 reply
synpet713192 wrote on May 9 2009, 10:46 am

Verse
D||--------------------------------------------------------------|
A||--------------------------------------------------------------|
F||--------------------------------------------------------------|
C||-------------------------------------------------------5--7---|
G||-5-----5---5-----5---5-------5-8-7-3---0---0------------------|
C||---0-0---0---0-0---0---0-0-0---------0---0---0-0-0-0-0--------|
. . . . . . . . . . . . . . . .
Should be

Verse
D||----------------------------------------------------------------|
A||----------------------------------------------------------------|
F||----------------------------------------------------------------|
C||---------------------------------------------------------5--7---|
G||-5-----5---5-----5---5-------5---7---3---0---0------------------|
C||---0-0---0---0-0---0---0-0-0---0---0---0---0---0-0-0-0-0--------|
. . . . . . . . . . . . . . . .

I want to post or [tab]
guest
You may want to rate the tab now too:
select rating
Please do not post tabs as comments. Select "correction" instead!