Oops, an error
Loading. Please wait.

Back Burner tab

version 2
version 2

Whole song

Interactive

26,796 views 12 this week
7 commentsread comments
1 2 3 4 5
x 9
add to favorites
×
Save as Personal and add changes to this tab that will be seen only by you. Learn more ›
×
You can save this tab as Personal to edit and correct it or add notes. All changes will be seen only by you. Learn more »
launch autoscroll
font size
0
reset
how to read this tab
guitar tuner
backing track
0:00
0:00
edit
Autoscroll
slow
fast
+/-
esc
set tempo
stop
Back Burner
August Burns Red
FROM THE ALBUM MESSENGERS (GREATEST ALBUM EVER)

TABBED BY JEREMY JONES

This is for the ppl without guitar pro and want the long tab.

**ALL OF THE OPENS ON THE E STRING IN THIS SONG ARE PALM MUTED EXCEPT FOR THE
ONES YOU CAN OBVIOUSLY HEAR ARENT.. ANY QUESTIONS DONT HESITATE TO ASK**

h - hammer on          / - slide up
p - pull off           \ - slide down
. - palm mute          t - tremelo picking
o                      ~ - let note ring out
  - repeat bars
o


Intro. 0.00 - 0.16

|--------------------|-------------------|--------------------|---------------|
|--------------------|--------------6h10-|--------------------|---------------|
|--------------------|------6h9-7h9------|--------------------|---------------|
|--------------------|-7h11--------------|--------------------|---------------|
|-------8---7----8---|-------------------|-------8---7----8---|--------7t-11t-|
|-0-0-0---0----0---0-|-------------------|-0-0-0---0----0---0-|-7t-11t--------|


|--------------------|-------------------|
|--------------------|--------------6h10-|
|--------------------|------6h9-7h9------|
|--------------------|-7h11--------------|
|-------8---7----8---|-------------------|
|-0-0-0---0----0---0-|-------------------|

|--------------------|---------------------|
|--------------------|----------------10---|
|--------------------|------------9--------|
|--------------------|-7-----11------------|
|-------8---7----8---|---0-0----0---0------|
|-0-0-0---0----0---0-|---0-0----0---0------|


|------------------|------------------10-|
|------------------|-------------10------|
|--------------9---|--------10-----------|
|-----7---11-------|-12------------------|
|-0-0---0----0---0-|----0-0----0----0----|
|-0-0---0----0---0-|----0-0----0----0----|

|--------------------|------------------9-|
|---------------10---|------------10------|
|----------10--------|-9-----12-----------|
|-----12-------------|--------------------|
|-0-0----0----0----0-|---0-0----0----0----|
|-0-0----0----0----0-|---0-0----0----0----|


|-------------------|-------------10---13-|---------------10---||
|--------------10---|--------10-----------|----------10--------||
|-----9---12--------|-10------------------|-----10-------------||
|-------------------|---------------------|--------------------||
|-0-0---0----0----0-|----0-0----0----0----|-0-0----0----0----0-||
|-0-0---0----0----0-|----0-0----0----0----|-0-0----0----0----0-||


Breakdown Sorta... 0.16 - 0.52


|-------------------------------||--------------------------------------------|
|-------------------------------||o-------------------------------------------|
|-------------------------------||--------------------------------------------|
|-------------------------------||--------------------------------------------|
|-------------------------0-0---||o--0--0--0-0--0-0--0-----0-0----0-0----0----|
|-------------------------0-0---||---0--0--0-0--0-0--0-----0-0----0-0----0----|
|
|-------------------------------||--------------------------------------------|
|-10h11-10----------------------||o-10h11-10----------------------------------|
|-------------10----------------||------------------10------------------------|
|----------12-----12p11---------||-------------12---------12p==11-------------|
|------------------------12-----||o-------------------------------------12----|
|-------------------------------||--------------------------------------------|


|----------------------------------------------||
|---------------------------------------------o||
|----------------------------------------------||
|----------------------------------------------||
|--0--0--0-0----0--0---0--------0-0-0-0--0----o||
|--0--0--0-0----0--0---0--------0-0-0-0--0-----||
|                                                     X4
|----------------------------------------------||
|-10h11-10------------------------------------o||
|-----------------10---------------------------||
|------------12-------------12p11--------------||
|---------------------------------------12----o||
|----------------------------------------------||


|-----------------------------------------|
|-----------------------------------------|
|-----------------------------------------|
|-----------------------------------------|
|-0---0-0-0-0---0-0---0----0-0-0-0-0-12\--|
|-0---0-0-0-0---0-0---0----0-0-0-0-0-12\--|
|
| PM----------------------------------------|
|-------------------------------------------|
|-------------------------------------------|
|-------------------------------------------|
|-------------------------------------------|
|-0---0-0-0-0---0-0---0----0-0-0-0-0-12\----|
|-0---0-0-0-0---0-0---0----0-0-0-0-0-12\----|


||------------------------------------|------------------------------------||
||o-----------------------------------|-----------------------------------o||
||------------------------------------|------------------------------------||
||------------------------------------|------------------------------------||
||o-0-0-0-0-0-0-0----0-0---0-0---0----|-0-0-0-0---0-0---0----0-0-0-0-0----o||
||--0-0-0-0-0-0-0----0-0---0-0---0----|-0-0-0-0---0-0---0----0-0-0-0-0-----||


|-------------------------------------------|
|-------------------------------------------|
|-------------------------------------------|
|-------------------------------------------|
|--0--0--0-0--0-0--0-----0-0----0-0----0----|
|--0--0--0-0--0-0--0-----0-0----0-0----0----|
|                                                   X2
|-------------------------------------------|
|-10h11-10----------------------------------|
|-----------------10------------------------|
|------------12---------12p==11-------------|
|-------------------------------------12----|
|-------------------------------------------|


|----------------------------------------|
|----------------------------------------|
|----------------------------------------|
|----------------------------------------|  THIS PART REPEATS BUT WHEN ITS
|-0--0-0-0--0-0--0-----0-0----0-0---0----|  DONE THE FIRST TIME, THE SECOND
|-0--0-0-0--0-0--0-----0-0----0-0---0----|  GUITAR HAS ANOTHER RIFF TO FINISH
|                                           OFF THIS SECTION TO BRING ON THE
|----------------------------------------|  BRIGE OR WHATEVER U WANT TO CALL
|----------------------------------------|  IT
|-9h10p9--------------12---10-------9----|                            
|----------12p==11-----------------------|                             
|----------------------------------------|                
|----------------------------------------|                
                                                        
|--------------------------------------------|
|--------------------------------------------|
|-9h10p9-------------------------------------|
|----------12p==11--------12p11--------------|
|-------------------------------------12-----|
|--------------------------------------------|

TRANSITION INTO NEXT SECTION (BOTH GUITARS)  0.52 - 0.56


|---------|----------|---------|--------------|
|---------|----------|---------|--------------|
|---------|----------|---------|--------------|
|-8-------|-(8)------|-7-------|-(7)----------|
|-8-------|-(8)------|-7-------|-(7)----/12\--|
|-8-------|-(8)------|-7-------|-(7)----/12\--|


RIFF... 0.57 - 1.25


||----------------|-------------|---------------|---------------|
||o---------------|-------------|---------------|---------------|
||----------------|-------------|---------------|---------------|
||----------------|-7-----------|---------------|---------------|
||o---------5-----|---5---5h7p0-|---------5-----|---------7-----|
||--0-0-0-0---0-0-|-----0-------|-0-0-0-0---0-0-|-7-7-7-7-7-7-7-|
|
|---------------|-------------|---------------|-------------||  X4, on 3 time
|---------------|-------------|---------------|------------o||  through, you
|---------------|-------------|---------------|-------------||  harmonic on 8th
|---------------|------7------|---------5-----|-7h8---------||  fret on 4th string
|---------8-----|-8h10---8----|-3-3-3-3-3-3-3-|-----5p4----o||
|-8-8-8-8-8-8-8-|-------------|---------------|-------------||

BACK INTO THE INTRO AGAIN w/ Extra Riff b4 the breakdown  1.25 - 1.58

|--------------------|-------------------|--------------------|---------------|
|--------------------|--------------6h10-|--------------------|---------------|
|--------------------|------6h9-7h9------|--------------------|---------------|
|--------------------|-7h11--------------|--------------------|---------------|
|-------8---12---8---|-------------------|-------8---12---8---|--------7t-11t-|
|-0-0-0---0----0---0-|-------------------|-0-0-0---0----0---0-|-7t-11t--------|


|--------------------|-------------------|
|--------------------|--------------6h10-|
|--------------------|------6h9-7h9------|
|--------------------|-7h11--------------|
|-------8---12---8---|-------------------|
|-0-0-0---0----0---0-|-------------------|


|--------------------|
|--------------------|
|--------------------|
|--------------------|
|-------8---12---8---|
|-0-0-0---0----0---0-|

|-------------------|------------------------||
|----------------10-|-11-10------------------||
|------------9------|-------10-9-------------||
|-7-----11----------|------------12-11-------||
|---0-0----0---0----|------------------12-10-||
|---0-0----0---0----|------------------------||

"When did you become so cold"

||------------------|-----------------|-----------------|------------------|
||o-----------------|-----------------|-----------------|------------------|
||------------------|-----------------|-----------------|------------------|
||--------7---------|-----------------|-----------------|------------------| REPEAT ALL ONCE
||o-8---------8---7-|-----5---7---8---|-4---4---5p0-----|---7-----7---8p0--|
||----0-0---0---0---|-0-0---0---0---0-|---0---0-----0-8-|-0---0-0---0------|

TRANSITION B4 THE BREAK DOWN  1.59 - 2.03


|---------------------|----------------------|
|---------------------|----------------------|
|---------------------|----------------------|
|---------------------|----------------------|
|-1--1--1-1-1-1--1--1-|-1--1--1-1-1-1--1-1-1-|
|-0--0--0-0-0-0--0--0-|-0--0--0-0-0-0--0-0-0-|

|---------------------|--------------------------||
|---------------------|--------------------------||
|---------------------|--------------------------||
|---------------------|--------------------------||
|-0--0--0-0-0-0--0--0-|-4--4--4-4-4-4--4---------||
|-0--0--0-0-0-0--0--0-|-0--0--0-0-0-0--0---------||

Breakdown...  2.04 - 2.28


||----------------------|-----------------------|
||o---------------------|-----------------------|
||----------------------|-----------------------|
||----------------------|-----------------------|
||o-0--0--0-0-0-0--0--0-|-0--0--0-0-0-0--0-0-0--|
||--0--0--0-0-0-0--0--0-|-0--0--0-0-0-0--0-0-0--|
                                                     GUITAR 1 PLAYS THE BREAK DOWN
|---------------------|----------------------||      4 TIMES and JB PLAYS ANOTHER
|---------------------|---------------------o||      RIFF WHICH IS BELOW THIS BREAKDOWN
|---------------------|----------------------||      RIFF.
|---------------------|----------------------||
|-0--0--0-0-0-0--0--0-|-0--0--0-0-0-0--0----o||
|-0--0--0-0-0-0--0--0-|-0--0--0-0-0-0--0-----||


||---------------------------|--------------------------|
||o-11p7---------------------|-11p7---------------------|
||-------8p7-8p7-------------|------8p7-8p7-------------|
||---------------8p7p0h7h8p7-|--------------8p7p0h7h8p7-|
||o--------------------------|--------------------------|
||---------------------------|--------------------------|

|--------------------------|---------------------------||
|-11p7---------------------|-11p7---------------------o||
|------8p7-8p7-------------|------8p7-8p7--------------||
|--------------8p7p0h7h8p7-|--------------8p7p0h7h8p===||
|--------------------------|--------------------------o||
|--------------------------|---------------------------||

TRANSITION...  2.29 - 2.33

|----------------|--------------------|------------|-------------||
|----------------|-11p7---------------|------------|-------------||
|----------------|------8p7-(7)--[7]--|------------|-------------||
|-----------10p8-|--------------------|------------|-------------||
|-0--0--8p7------|--------------------|------------|-7t---11t----||
|-0--0-----------|--------------------|-7t---11t---|-------------||

RIFF..  2.34 - 2.56

||---------------------|-------------------------|
||o--------------------|-------------------------|
||---------------------|------------10h14p10-----|
||---------------------|---------------------12--|
||o-----8---8h12p0-----|-8---8h12p0--------------|
||--0-0---0--------0-0-|---0---------------------|

|--------------------|-----------------||
|--------------------|-----------------||
|--------------------|-----------------||
|--------------------|-----------------||
|-----8---8h12p0-----|-7-6-5-4-8-7-6-5-||
|-0-0---0--------0-0-|-7-6-5-4-8-7-6-5-||
                       . . . . . . . .


EVERYTHINGS THE SAME AGAIN BUT WITH THE SECOND ENDING IS

|--------------------|---------------||
|--------------------|--------------o||
|--------------------|---------------||
|--------------------|---------------||
|-----8---8h12p0-----|-5~---5~---5~-o||
|-0-0---0--------0-0-|---------------||

|--------------------|-------------------------|
|--------------------|-------------------------|
|--------------------|------------10h14p10-----|
|--------------------|---------------------12--|
|-----8---8h12p0-----|-8---8h12p0--------------|
|-0-0---0--------0-0-|---0---------------------|

|--------------------|-----------------||
|--------------------|-----------------||
|--------------------|-----------------||
|--------------------|-----------------||
|-----8---8h12p0-----|-7-6-5-4-8-7-6-5-||
|-0-0---0--------0-0-|-7-6-5-4-8-7-6-5-||
                       . . . . . . . .

|--------------------|-------------------------|
|--------------------|-------------------------|
|--------------------|------------10h14p10-----|
|--------------------|---------------------12--|
|-----8---8h12p0-----|-8---8h12p0--------------|
|-0-0---0--------0-0-|---0---------------------|

|--------------------|
|--------------------|
|--------------------|
|--------------------|
|-----8---8h12p0-----|
|-0-0---0--------0-0-|

|-----------------|--------------------|
|-----------------|--------------------|
|-----------------|--------------------|
|-----------------|--------------------|
|-7-6-5-4-8-7-6-5-|-10-9-8-7-11-10-9-8-|
|-7-6-5-4-8-7-6-5-|-10-9-8-7-11-10-9-8-|
  . . . . . . . .   .  . . . . . . . .


|----------------|-----------------|--------------||
|----------------|-----------------|--------------||
|----------------|-----------------|--------------||
|----------------|-----------------|--------------||
|----------------|-----------------|--------------||
|-12----12----8--|-7----7----3-(3)S|=7----7----2--||

OUTRO/BREAKDOWN  2.56 - END

||--------------|--------------|------------|
||o-------------|--------------|------------|
||--------------|--------------|------------|
||--------------|--------------|------------|
||o-0-0--0------|-0-0--0--0--0-|-0--0-------|
||--0-0--0------|-0-0--0--0--0-|-0--0-------|

|---------------|--------------|------------||
|---------------|--------------|-----------o||
|---------------|--------------|------------||
|---------------|--------------|------------||
|-0-0--0--0-0-0-|-0--0--0-0--0-|-(0)-------o||
|-0-0--0--0-0-0-|-0--0--0-0--0-|-(0)--------||


|---------------|------------|-------------|------|
|---------------|------------|-------------|------|
|---------------|------------|-------------|------|
|---------------|------------|-------------|------|
|-0-0--0-(0)----|-(0)--------|-0-0--0------|------|
|-0-0--0-(0)----|-(0)--------|-1-1--1------|------|

||----------------|--------------|--------------|
||o---------------|--------------|--------------|
||----------------|--------------|--------------|
||----------------|--------------|--------------|
||o-0-0--0-(0)----|-0-0--0--0--0-|-0--0--(0)----|
||--1-1--1-(1)----|-1-1--1--1--1-|-1--1--(1)----|

|---------------|--------------|---------||
|---------------|--------------|--------o||
|---------------|--------------|---------||
|---------------|--------------|---------||
|-0-0--0--0-0-0-|-0--0--0-0--0-|-(0)----o||
|-1-1--1--1-1-1-|-1--1--1-1--1-|-(1)-----||


||--------------|--------------|------------|
||o-------------|--------------|------------|
||--------------|--------------|------------|
||--------------|--------------|------------|
||o-0-0--0------|-0-0--0--0--0-|-0--0-------|
||--0-0--0------|-0-0--0--0--0-|-0--0-------|

|---------------|--------------|------------||
|---------------|--------------|-----------o||
|---------------|--------------|------------||
|---------------|--------------|------------||
|-0-0--0--0-0-0-|-0--0--0-0--0-|-(0)-------o||
|-0-0--0--0-0-0-|-0--0--0-0--0-|-(0)--------||


|---------------|------------|------------|--------*|
|---------------|------------|------------|--------*|
|---------------|------------|------------|--------*|
|---------------|------------|------------|--------*|
|-0-0--0-(0)----|-(0)--------|-(0)--------|-(0)----*|
|-0-0--0-(0)----|-(0)--------|-(0)--------|-(0)----*|


THANK YOU, COMMENT IT..

- JEREMY JONES

            
            
Suggest correction
Creating personal tab
Creating personal tab
You can edit any tab online and save it as your Personal.

You can edit, replace or remove any tab part or add personal notes – all changes will be seen only by you.

Personal tabs can be accessed anytime from any device, even offline.
Learn more »
comments
print report bad tab
7 comments total. Showing first comments.
+3 reply
mrgoldylocks 85 Aug 19, 2008 11:27 AM

This tab is sick. Thanks.

0 reply
jaysk8s 159 Dec 08, 2009 05:55 AM

on the intro is the 7 supposed to be on the d string instead of the a string?

-1 reply
xTwister 10 Jan 15, 2010 12:39 AM

What tuning is it in ?

guest
You may want to rate the tab now too:
select rating
Wanna post a correction for this tab? Suggest correction