Oops, an error
Loading. Please wait.

Barbarian Bass Tab

version 2
version 2

Whole song

3,481 views 3 this week
1 commentread comment
1 2 3 4 5
excellent!
x 3
add to favorites
launch autoscroll
font size
0
reset
guitar tuner
Autoscroll
slow
fast
+/-
esc
set tempo
stop
Help us to improve Ultimate-Guitar.com Take our survey!
×
Author
Tuning
C G C F A D
This isn't 100% accurate but it's better than the other bass tab

Drop C

/ = slide up
\ = slide down
h = hammer on
p = pull off
~ = let ring

(0:00-0:03) Intro
F|-----------------------------------------------------|
C|-----------------------------------------------------|
G|-----------------------------------------------------|
C|-55555555-555555-555555-5555-------------------------|x1

(0:04-0:10) Intro
F|-----------------------------------------------------|
C|-----------------------------------------------------|
G|-----------------------------------------------------|
C|-55555555-555555-555555-5555-55555--5555555----------|x1

(0:10-0:21) "Chaos brings order"
F|-----------------------------------------------------|
C|-----------------------------------------------------|
G|-----------------------------------------------------|
C|-55555555-555555-555555-5555--------5555555----------|x2

(0:21-0:31) Pre 2-step part
F|-----------------------------------------------------|
C|-----------------------------------------------------|
G|-----------------------------------------------------|
C|-5555555555555555------------------------------------|x4

(0:32-0:42) 2 step
F|-----------------------------------------------------|
C|-----------------------------------------------------|
G|-----------------------------------------------------|
C|-5-5-5-5-0-0-0-0-1-1-1-1-3-3-3-3---------------------|x2

(0:43-0:53) "You're like a little girl with a stupid crush"
F|-----------------------------------------------------|
C|-----------------------------------------------------|
G|-----------------------------------------------------|
C|-5555555500000001111111133333333---------------------|x2

(0:53-0:55)
F|-----------------------------------------------------|
C|-----------------------------------------------------|
G|-----------------------------------------------------|
C|-5-45-45-01/3----------------------------------------|x1

(0:55-0:58) "We all seek glory"
F|------------------------7p5--------------------------|
C|---------------5h8p5-3/5---7-------------------------|
G|--------------------8--------------------------------|
C|-5-45-45-01/3----------------------------------------|x1

(0:58-1:07) "We all choke, we all seek glory"
F|------------------------------------7p5--------------|
C|---------------------------5h8p5-3/5---7-------------|
G|--------------------------------8--------------------|
C|-5-45-45-01/3-5-45-45-01/3---------------------------|x2

(1:08-1:11) "We all choke"
F|-----------------------------------------------------|
C|-----------------------------------------------------|
G|-----------------------------------------------------|
C|-5-45-45-01/3-55555555-------------------------------|x1

(1:11-1:28) Pretty part, "We all choke ourselves"
F|-----------------------------------------------------|
C|-----------------------------------------------------|
G|-----------------------------------------------------|
C|-11111111-33333333-5555555555555555------------------|x3

(1:28-1:34) 
F|-----------------------------------------------------|
C|-----------------------------------------------------|
G|---------------------------------1-------------------|
C|-5555-55-45-001/3-5555-55-45-5-1---------------------|x1

(1:34-1:40)
F|----------------------------------5------------------|
C|-------------------------------047-------------------|
G|------------------------------0----------------------|
C|-5555-55-45-001/3-5555-55-45-5-----------------------|x1

(1:40-1:46)
F|-----------------------------------------------------|
C|-----------------------------------------------------|
G|---------------------------------1-------------------|
C|-5555-55-45-001/3-5555-55-45-5-1---------------------|x1

(1:46-1:52)
F|----------------------------------5------------------|
C|-------------------------------047-------------------|
G|------------------------------0----------------------|
C|-5555-55-45-001/3-5555-55-45-5-----------------------|x1

(1:52-1:57)
F|-----------------------------------------------------|
C|-----------------------------------------------------|
G|-----------------------------------------------------|
C|-55----5------5---5-------55----555------------------|x1

(1:57-2:00)
F|-----------------------------------------------------|
C|-----------------------------------------------------|
G|-----------------------------------------------------|
C|-00---0000---000-----0---0---0-----------------------|x1

(2:00-2:02) Fast fill
F|-----------------------------------------------------|
C|-----33335555----333355557777------------------------|
G|-6666--------6666------------8888--------------------|
C|-----------------------------------------------------|x1

(2:03-2:07) 
F|-----------------------------------------------------|
C|-----------------------------------------------------|
G|-----------------------------------------------------|
C|-55----5------5---5-------55----555------------------|x1

(2:07-2:09)
F|-----------------------------------------------------|
C|-----------------------------------------------------|
G|-----------------------------------------------------|
C|-00---0000---000-----0---0---0-----------------------|x1

(2:10-2:12) Fast fill
F|-----------------------------------------------------|
C|-----33335555----333355557777------------------------|
G|-6666--------6666------------8888--------------------|
C|-----------------------------------------------------|x1

(2:12-2:32) Another pretty part
F|-----------------------------------------------------------------|
C|-----------------------------------------------------------------|
G|-----------------------------------------------------------------|
C|-8-8-8-88-888-88-5-5-5-55-555-55-1-1-1-11-111-11-3-3-3-33-333-33-|x2

(2:32-2:34) Fill
F|-----------------------------------------------------|
C|-----------------------------------------------------|
G|-----------------------------------------------------|
C|-55555555--------------------------------------------|x1

(2:34-2:43) 2 Step
F|-----------------------------------------------------|
C|-----------------------------------------------------|
G|-----------------------------------------------------|
C|-5-5-5-5-0-0-0-0-1-1-1-1-3-3-3-3---------------------|x2

(2:44-2:48) "Dance until the end my friend and find joy in"
F|-----------------------------------------------------|
C|-----------------------------------------------------|
G|-----------------------------------------------------|
C|-5555555500000001111111133333333---------------------|x1

(2:49-2:57) "every living thing"
F|-----------------------------------------------------|
C|-----------------------------------------------------|
G|-----------------------------------------------------|
C|-5555555500000001-1-1-1-3-3-3-3-3-3-3-3-3-3-3-3-3-3--|x1

(2:57-2:59)
F|-----------------------------------------------------|
C|-----------------------------------------------------|
G|-----------------------------------------------------|
C|-00000000-000000-------------------------------------|x1

(2:59-3:31) Outro
F|-----------------------------------------------------|
C|-----------------------------------------------------|
G|-----------------------------------------------------|
C|-00000000-000000-000000-0000--------0000000----------|x6

End on
F|-----------------------------------------------------|
C|-----------------------------------------------------|
G|-----------------------------------------------------|
C|-5~--------------------------------------------------|x1
Suggest correction new What's this?
You can suggest a correction to this tab. Community and Mods will review your correction and vote to approve or reject it.
comments
We did not receive enough feedback on this tab! Please rate:
print report bad tab
1 2 3 4 5
1 comment total.
+1 reply
bassoreo 32 wrote on May 12 2009, 12:49 pm

this tab is perfect except for the part at 1:34 he does hit the highest note. only on the 2nd time i believe. but this tab is amazing still. kudos!

guest
You may want to rate the tab now too:
select rating
Please do not post tabs as comments. Select "correction" instead!