Oops, an error
Loading. Please wait.

Barbarian Tab

version 4
version 4
2,503 views 1 this week
4 commentsread comments
1 2 3 4 5
accurate
x 3
add to favorites
launch autoscroll
font size
0
reset
how to read this tab
guitar tuner
Autoscroll
slow
fast
+/-
esc
set tempo
stop
Help us to improve Ultimate-Guitar.com Take our survey!
×
Author
Difficulty
Tuning
intermediate
C G C F A D
Band: August Burns Red
Album: Thrill Seeker
Song: Barbarian

All other tabs I looked up seemed wrong to me. So I played this by ear. This is what I 
It should be pretty accurate.

Tuning: Drop C-

Tabbed by: Paco Diaz
Email: lilspaniard@hotmail.com

  Intro, Guitar I (00.00) play twice
||----------------------------------------------------------------|
||----------------------------------------------------------------|
||----------------------------------------------------------------|
||----------------------------------------------------------------|
||-555555555----5555555----5555555----55555--------55555555-------|
||-555555555----5555555----5555555----55555--------55555555-------|
   .........    .......    .......    .....        ........

 Intro, Guitar II (00.10) play twice
||---------------------------------------------------------------------|
||---------------------------------------------------------------------|
||--------------------5555----7777----88887777--------77775555---------|
||5555-7777-8888-3333----8888----5555--------8888-5555--------8888-4444|
||---------------------------------------------------------------------|
||---------------------------------------------------------------------|

   (00.20) play twice
||----------------------------------------------------------------|
||----------------------------------------------------------------|
||---------5---7---8-7-----7-5------------------------------------|
||-5-7-8-5---8---5-----8-5-----8-4--------------------------------|
||----------------------------------------------------------------|
||----------------------------------------------------------------|

   (00.26) play twice
||-6-8-10-6---11-10-8-6-------------------------------------------|
||----------------------8-10-11-8---------(8)play only first time-|
||--------------------------------10-8-7--------------------------|
||----------------------------------------------------------------|
||----------------------------------------------------------------|
||----------------------------------------------------------------|

  Verse I (00.31) play twice
||----------------------------------------------------------------|
||----------------------------------------------------------------|
||----------------------------------------------------------------|
||-5---7---8---7---4---5---7---5---1---3---5---1---3---5---7---3--|
||----------------------------------------------------------------|
||---5---5---5---5---0---0---0---0---1---1---1---1---3---3---3----|
     .   .   .   .   .   .   .   .   .   .   .   .   .   .   .

  Verse I (00.42) play twice
||----------------------------------------------------------------|
||----------------------------------------------------------------|
||---------------------------------0---2---3---0---3---5---7---3--|
||-5---7---8---7---4---5---7---5----------------------------------|
||----------------------------------------------------------------|
||---5---5---5---5---0---0---0---0---1---1---1---1---3---3---3----|
     .   .   .   .   .   .   .   .   .   .   .   .   .   .   .

  Verse II (00.53) play three times
||----------------------------------------------------------------|
||----------------------------------------------------------------|
||----------------------------------------------7-5---------------|
||---------------------------------7h8------3/5-----7-------------|
||-55555---1/4-4---55555---1/4-4-------10p9-----------------------|
||-55555---1/4-4---55555---1/4-4----------------------------------|


   (01.07) play once
||-------------------------------------------------------------------|
||-------------------------------------------------------------------|
||---------------7777777777777777---3-3-3-3-3-3-3-3--5-5-5-5-5-5-5-5-|
||---------------xxxxxxxxxxxxxxxx---x-x-x-x-x-x-x-x--x-x-x-x-x-x-x-x-|
||-55555---1/4-4-5555555555555555---1-1-1-1-1-1-1-1--3-3-3-3-3-3-3-3-|
||-55555---1/4-4-----------------------------------------------------|


||------------------------------------------------------------------|
||------------------------------------------------------------------|
||--7-7-7-7-7-7-7-7-------------------------------------------------|
||--x-x-x-x-x-x-x-x-------------------------------------------------|
||--5-5-5-5-5-5-5-5-------------------------------------------------|
||------------------------------------------------------------------|

  Solo I, Guitar II (01.15)
||-------------------------------------------11-10---------------------|
||---------------------------8~-11-10----10-8-----8-10-11-8------10----|
||----------7-8-5-7--/10\8-7---------10-8------------------10-8-7------|
||-5-7-8-5-------------------------------------------------------------|
||---------------------------------------------------------------------|
||---------------------------------------------------------------------|

  Solo I, Guitar II (01.15)
||-------------------------------------------11-10---------10-8-10-11--|
||---------------------------8~-11-10----10-8-----8-10-11-8------------|
||----------7-8-5-7--/10\8-7---------10-8------------------------------|
||-5-7-8-5-------------------------------------------------------------|
||---------------------------------------------------------------------|
||---------------------------------------------------------------------|

  Verse III (01.27)
||------------------------------------------------------------|
||------------------------------------------------------------|
||------------------------------------------------------------|
||------------------------------------------------------------|
||-55555--55-55--4h5-00-1h3-00--55555--55-55--4h5-0-1-3-1-3-5-|
||-55555--55-55--4h5-00-1h3-00--55555--55-55--4h5-0-1-3-1-3-5-|
   .....  .. ..      ..     ..  .....  .. ..      . . . . . .


  Verse III (01.34)
||------------------------------------------------------------------|
||------------------------------------------------------------------|
||------------------------------------------------------------------|
||--------------------------------------------------------7-10------|
||-55555--55-55--4h5-00-1h3-00--55555--55-55--4h5-00--5-8-----------|
||-55555--55-55--4h5-00-1h3-00--55555--55-55--4h5-00----------------|
   .....  .. ..      ..     ..  .....  .. ..      ..

  Verse III (01.39)
||------------------------------------------------------------|
||------------------------------------------------------------|
||------------------------------------------------------------|
||------------------------------------------------------------|
||-55555--55-55--4h5-00-1h3-00--55555--55-55--4h5-0-1-3-1-3-5-|
||-55555--55-55--4h5-00-1h3-00--55555--55-55--4h5-0-1-3-1-3-5-|
   .....  .. ..      ..     ..  .....  .. ..      . . . . . .


  Verse III (01.46)
||------------------------------------------------------------|
||------------------------------------------------------------|
||------------------------------------------------------------|
||------------------------------------------------------------|
||-55555--55-55--4h5-00-1h3-00--55555--55-55--4h5-00----------|
||-55555--55-55--4h5-00-1h3-00--55555--55-55--4h5-00----------|
   .....  .. ..      ..     ..  .....  .. ..      ..


 (01.51)
||-----------------10-|
||---------------10---|
||----------9-11------|
||-----7-10-----------|
||-5-8----------------|
||--------------------|

  Verse IV (01.53) play twice
||---------------------------------------------------------|
||---------------------------------------------------------|
||------------------------------------------------0--------|
||-----8---7-8--------10-8---7-8--------12---13p8----------|
||---------------10--------------10------------------------|
||-0-0---0-----0----0------0--------0-0----0---------------|
   . .   .     .    .      .        . .    .
||-------------------------------------------------------------------|
||-13p11p10----------8-----------------------------------------------|
||----------12-7-8-5---10--------------------------------------------|
||-------------------------------------------------------------------|
||---------------------------10--10-9h10-10--9--66668888101010106666-|
||-------------------------00--00--0----0--0-------------------------|
                           ..  ..  .    .  .
||----------------------------|
||----------------------------|
||----------------------------|
||----------------------------|
||--888810101010121212128888--|
||----------------------------|

 Solo II, Guitar I (02.12) play twice
||---------------------------------------------------------13-------|
||-13p11p10------------------------------------13-16-15-13----13----|
||----------10\7/10\7--------------------12/14----------------------|
||-------------------8-7-8--------121415----------------------------|
||-------------------------101213-----------------------------------|
||------------------------------------------------------------------|

||--------------------------------------------------------------|
||--------------------------------------------------------------|
||---------------------12-15----------------------12-15---------|
||---------------12-15----------------------12-15---------------|
||-13p12p10-8-10-------------13p12p10p-8-10---------------------|
||--------------------------------------------------------------|


||---------------13~-(17p15p13--17p15p13) play first time only---|
||--/13-11-10----------------------------------------------------|
||------------12-------------------------------------------------|
||---------------------------------------------------------------|
||---------------------------------------------------------------|
||---------------------------------------------------------------|

  Verse V (02.34)
||----------------------------------------------------------------|
||----------------------------------------------------------------|
||----------------------------------------------------------------|
||-5---7---8---7---4---5---7---5---1---3---5---1---3---5---7---3--|
||----------------------------------------------------------------|
||---5---5---5---5---0---0---0---0---1---1---1---1---3---3---3----|
     .   .   .   .   .   .   .   .   .   .   .   .   .   .   .

||----------------------------------------------------------------|
||----------------------------------------------------------------|
||---------------------------------0---2---3---0---3---5---7---3--|
||-5---7---8---7---4---5---7---5----------------------------------|
||----------------------------------------------------------------|
||---5---5---5---5---0---0---0---0---1---1---1---1---3---3---3----|
     .   .   .   .   .   .   .   .   .   .   .   .   .   .   .

||----------------------------------------------------------------|
||----------------------------------------------------------------|
||----------------------------------------------------------------|
||-5---7---8---7---4---5---7---5---8--10--12---8--10--12--13--12--|
||----------------------------------------------------------------|
||---5---5---5---5---0---0---0---0---8---8---8---8--10--10--10----|
     .   .   .   .   .   .   .   .   .   .   .   .   .   .   .


||----------------------------------------------------------------|
||----------------------------------------------------------------|
||----------------------------------------------------------------|
||-5---7---8---7---4---5---7---5---8--10--12---8--10--12--13--12--|
||----------------------------------------------------------------|
||---5---5---5---5---0---0---0---0---8---8---8---8--10--10--10----|
     .   .   .   .   .   .   .   .   .   .   .   .   .   .   .

||-------------------------------------------------------------------|
||-------------------------------------------------------------------|
||--------------------------------------------19~--------------------|
||----13---12--12---13---12--13--17--16--19--------------------------|
||-------------------------------------------------------------------|
||--10--10---12--12---12---12--12--12--12--12------------------------|
     .   .   .   .    .    .   .   .   .   .

 Breakdown (02.57) play twice
||-----------------------------------------------------------|
||-----------------------------------------------------------|
||-----------------------------------------------------------|
||-----------------------------------------------------------|
||-000000000----0000000----0000000----00000--------000000000-|
||-000000000----0000000----0000000----00000--------000000000-|
   .........    .......    .......    .....        .........

Outro (3.09)  play four times
||---------------------------------------------------------------------|
||---------------------------------------------------------------------|
||--------------------5555----7777----88887777--------77775555---------|
||5555-7777-8888-3333----8888----5555--------8888-5555--------8888-4444|
||---------------------------------------------------------------------|
||---------------------------------------------------------------------|

After fourth (3.31) play
||------------------|
||------------------|
||------------------|
||--5~~-------------|
||--5~~-------------|
||--5~~-------------|

Enjoy
Suggest correction
Give kudos to tab author, rate the tab!
1 2 3 4 5
comments
print report bad tab
4 comments total. Showing first comments.
0 reply
guitxx 10 wrote on September 28 2008, 05:31 pm

This is actually better than like all othr tabs I've seen for this song in this website.

0 reply
cslink 151 wrote on December 10 2008, 12:46 am

no way, the first tab is better, easier way to play and sounds better

0 reply
xthelostcausex 10 wrote on October 1 2009, 10:55 pm

I personally find this one better than the first. It's clearer and is explained in a more sufficent manner.

guest
You may want to rate the tab now too:
select rating
Wanna post a correction for this tab? Suggest correction