Oops, an error
Loading. Please wait.

Beauty In Tragedy Tab

version 1
version 1

Whole song

Interactive

6,393 views 15 this week
5 commentsread comments
1 2 3 4 5
please rate
add to favorites
launch autoscroll
font size
0
reset
how to read this tab
guitar tuner
Autoscroll
slow
fast
+/-
esc
set tempo
stop
Help us to improve Ultimate-Guitar.com Take our survey!
×
Author
Difficulty
Tuning
intermediate
C# G# C# F# A# D#
Unfortunately I don't know the whole song just yet, but I do have a good portion
of it down, so here we go, my first tab. :)

!= pickscrape the headstock string(s)

  fig.1
D#|---|---------------------------------|
A#|-!-|-----------5---------------------|
F#|-!-|---------------6-----------------|
C#|-!-|-4---6h7-----------4---6h7---2---|
G#|---|---------------------------------|
C#|---|---0-----0---0---0---0-----0---0-|
pm        .     .   .   .   .     .   .

fig.2
|---------------------------------|---------------|
|---------------------------------|---------5-----|
|-----------4---6-------------4---|-------6---6---|
|-7---6h7-----------7---6h7-------|-4-6-7-------7-|
|---------------------------------|---------------|
|---4-----4---4---4---4-----4---4-|---------------|
pm  .     .   .   .   .     .   .

fig.3
|-------------------------------------------|
|-------------------------------------------|
|-------------------------------------------|
|-0-2-4-(2/4)---0-7-4-(2/4)---0-2-4---0-2-4-|
|-0-2-4-(2/4)---0-7-4-(2/4)---0-2-4---0-2-4-|
|-0-2-4-(2/4)---0-7-4-(2/4)---0-2-4---0-2-4-|
sorry but I can't figure out how to properly tab out when they use triplets to slow down 
the song :/

fig.4
|-----------------------------------------------------|
|-----------------------------------------7---7---7-7-|
|-----------------------------------------6---6---6-6-|
|-0---0---0-0--x-x----0---0-----0-0-0-----4---4---4-4-|
|-0---0---0-0--x-x--000---0---000-0-0---004---4---4-4-|
|-0---0---0-0--x-x--000---0---000-0-0---004---4---4-4-|
pm                  ..        ..        ..

|--------------------|
|----7---7-----------|
|----6---6-----9-9-9-|
|----4---4-----7-7-7-|
|--444---4---447-7-7-|
|--444---4---447-7-7-|
pm ..        ..

|----------------------------------------|
|----------------------------------------|
|----------------------------------------|
|----0---0---0-0--x-x----0---0-----0-0-0-|
|--000---0---0-0--x-x--000---0---000-0-0-|
|--000---0---0-0--x-x--000---0---000-0-0-|
pm ..                  ..        ..

|------------------------------------|-----|
|----7---7---7-7--!--7---7-----------|-----|
|----6---6---6-6--!--6---6-----9-9-9-|-----|
|----4---4---4-4--!--4---4-----7-7-7-|---0-|
|--004---4---4-4-----4---4---447-7-7-|-000-|
|--004---4---4-4-----4---4---447-7-7-|-000-|
pm ..                        ..        ..

And that's all I got so far hopefully this helps in getting you started and on your way :D
Suggest correction
What's this?
You can suggest a correction to this tab. Community and Mods will review your correction and vote to approve or reject it.
comments
We did not receive enough feedback on this tab! Please rate:
print report bad tab
1 2 3 4 5
5 comments total. Showing first comments.
+2 reply
AdamGuion 392 wrote on October 15 2013, 02:35 pm

I'll give it a "you tried"/10.

0 reply
jwstringskipper 70 wrote on October 16 2013, 08:26 pm

I now know a lot more of the song and from start to finish too so I'll update it to make it a little better soon

0 reply
jwstringskipper 70 wrote on October 16 2013, 11:45 pm


fig.2 ending
|-----------------|
|-----------------|
|-----4-6-4-------|
|-6-7-------7-6-4-|
|-----------------|
|-----------------|

fig.2 harmony
|-------------------------------|-----------------|-----------------|
|---------------5---------------|---------------5-|-------5---------|
|-6---4h6---7-------6---4h6---7-|-6---4h6---7-----|-4-6-7---7-6-4---|
|-------------------------------|-----------------|---------------7-|
|-------------------------------|-----------------|-----------------|
|---4-----4---4---4---4-----4---|---4-----4---4---|-----------------|
pm . . . . . . . . .

fig.3 (just follow the rhythm) :)
|-----------------|-----------------|-----------------|-----------------|
|-----------------|-----------------|-----------------|-----------------|
|-----------------|-----------------|-----------------|-----------------|
|-0-0-0-0-0-0-0-0-|-2-2-2-2-2-2-2-2-|-4-4-4-4-4-4-4-4-|-2/4-4-4-4-4-4-4-|
|-0-0-0-0-0-0-0-0-|-2-2-2-2-2-2-2-2-|-4-4-4-4-4-4-4-4-|-2/4-4-4-4-4-4-4-|
|-0-0-0-0-0-0-0-0-|-2-2-2-2-2-2-2-2-|-4-4-4-4-4-4-4-4-|-2/4-4-4-4-4-4-4-|
1 2 3 4 1 2 3 4 1 2 3 4 1 2 3 4
|-----------------|-----------------|-----------------|-----------------|
|-----------------|-----------------|-----------------|-----------------|
|-----------------|-----------------|-----------------|-----------------|
|-0-0-0-0-0-0-0-0-|-7-7-7-7-7-7-7-7-|-4-4-4-4-4-4-4-4-|-2/4-4-4-4-4-4-4-|
|-0-0-0-0-0-0-0-0-|-7-7-7-7-7-7-7-7-|-4-4-4-4-4-4-4-4-|-2/4-4-4-4-4-4-4-|
|-0-0-0-0-0-0-0-0-|-7-7-7-7-7-7-7-7-|-4-4-4-4-4-4-4-4-|-2/4-4-4-4-4-4-4-|

|-----------------|-----------------|-----------------|-----------------|
|-----------------|-----------------|-----------------|-----------------|
|-----------------|-----------------|-----------------|-----------------|
|-0-0-0-0-0-0-0-0-|-2-2-2-2-2-2-2-2-|-4-4-4-4-4-4-4-4-|-2/4-4-4-4-4-4-4-|
|-0-0-0-0-0-0-0-0-|-2-2-2-2-2-2-2-2-|-4-4-4-4-4-4-4-4-|-2/4-4-4-4-4-4-4-|
|-0-0-0-0-0-0-0-0-|-2-2-2-2-2-2-2-2-|-4-4-4-4-4-4-4-4-|-2/4-4-4-4-4-4-4-|

|-----------------|-----------------|---------------|------------------------|
|-----------------|-----------------|---------------|------------------------|
|-----------------|-----------------|-------6-------|------------------------|
|-0~~~~~~~~~~~~~~~|-2~~~~~~~~~~~~~~~|----4----7-6-4-|-4-4-4--4--4--4---4---4-|
|-0~~~~~~~~~~~~~~~|-2~~~~~~~~~~~~~~~|-444-4---------|-4-4-4--4--4--4---4---4-|
|-0~~~~~~~~~~~~~~~|-2~~~~~~~~~~~~~~~|---------------|-4-4-4--4--4--4---4---4-|
pm ... . . . .
1 2 3 4 1 2 3 4 1 2 3 4 1 2 3 & a 4 & a

Alrighty then I hope this helps a little bit more and I pray I got that triplet part tabbed right so that it isn't confusing. I'll try to add some more tomorrow :D

guest
You may want to rate the tab now too:
select rating
Please do not post tabs as comments. Select "correction" instead!