Oops, an error
Loading. Please wait.

Blackwood tab

version 1
version 1

Whole song

Interactive

1,794 views 6 this week
no commentswrite comment
1 2 3 4 5
x 3
add to favorites
×
Save as Personal and add changes to this tab that will be seen only by you. Learn more ›
×
You can save this tab as Personal to edit and correct it or add notes. All changes will be seen only by you. Learn more »
launch autoscroll
font size
0
reset
how to read this tab
guitar tuner
edit
Autoscroll
slow
fast
+/-
esc
set tempo
stop
[Blackwood]
[August Burns Red]
[Found In Far Away Places]

Tuning: B Gb B E Ab Db (Drop B / 1.5 Steps Down From Drop D)
joshuaoliveira@hotmail.com

[Riff 1a] - [00:00] - [00:43----------------------------------------| - [x2]
- -------13~---------13~-----------------12~------------------------|
- -------10~---------10~-----------------10~------------------------|
- -10~---------10~---------10--10--10~---------10~------------------|
- -12~---------12~---------12--12--11~---------11~------------------|
- ------------------------------------------------------------------|
- ------------------------------------------------------------------|

- -------13~---------13~-----------------15~-----------------------|
- -------10~---------10~-----------------12~-----------------------|
- -10~---------10~---------10--10/-12~---------12~-----------------|
- -10~---------10~---------10--10/-12~---------12~-----------------|
- -----------------------------------------------------------------|
- -----------------------------------------------------------------|

- -------17~---------17~-----------------17~-----------------------|
- -------15~---------15~-----------------14~-----------------------|
- -15~---------15~---------15--15\-14~---------15~-----------------|
- -15~---------15~---------15--15\-14~---------15~-----------------|
- -----------------------------------------------------------------|
- -----------------------------------------------------------------|

- -------13~---------13~-----------------15~-----------------------|
- -------10~---------10~-----------------12~-----------------------|
- -10~---------10~---------10--10/-12~---------12~-----------------|
- -10~---------10~---------10--10/-12~---------12~-----------------|
- -----------------------------------------------------------------|
- -----------------------------------------------------------------|

[Riff 1b] - [00:22] - [00:43]
- -----------------------------------------------------------------|
- -10(x32)---------10br(x32)-------10(x32)--------\8(x32)----------|
- -----------------------------------------------------------------|
- -----------------------------------------------------------------|
- -----------------------------------------------------------------|
- -----------------------------------------------------------------|
AP ...............................................................

- -----------------------------------------------------------------|
- \6(x32)---------\5(x32)---------/6(x32)---------/8(x32)----------|
- -----------------------------------------------------------------|
- -----------------------------------------------------------------|
- -----------------------------------------------------------------|
- -----------------------------------------------------------------|
AP ...............................................................

[Riff 2, Guitar 1 & 2] - [00:43] - [00:53]
- ---------------------------------------------------------|
- ---------------------------------------------------------|
- ---------------------------------------------------------|
- -------------3-3-3-----------3-3-3-----------3-3-3-------|
- -000-000-000-0-0-0-000-0-000-0-0-0-000-0-000-0-0-0-000-0-|
- -000-000-000-3-3-3-000-0-000-3-3-3-000-0-000-3-3-3-000-0-|
PM ...........       .........       .........       .....
- ---------------------------------------------------------|
- ---------------------------------------------------------|
- ---------------------------------------------------------|
- ---------------------------------------------------------|
- -000-000-000-------000-0-000-------000-0-000-------000-0-|
- -000-000-000-------000-0-000-------000-0-000-------000-0-|
PM ...........       .........       .........       .....


- -----------------------------------------------------------------|
- -----------------------------------------------------------------|
- -----------------------------------------------------------------|
- -----------------------------------------------------------------|
- -000-000-000-------000-0-000-------000-0-000-------000-0-000-000-|
- -000-000-000-------000-0-000-------000-0-000-------000-0-000-000-|
PM ...........       .........       .........       .............
- -----------------------------------------------------------------|
- -----------------------------------------------------------------|
- -----------------------------------------------------------------|
- -------------3-3-3-----------3-3-3-----------3-3-3---------------|
- -000-000-000-0-0-0-000-0-000-0-0-0-000-0-000-0-0-0-000-0-000-000-|
- -000-000-000-3-3-3-000-0-000-3-3-3-000-0-000-3-3-3-000-0-000-000-|
PM ...........       .........       .........       .............


[Riff 3a] - [00:53] - [01:25----------------------------------------| - [x2]
- ------------------------------------------------------------------|
- ------------------------------------------------------------------|
- ------------------------------------------------------------------|
- ------------------------------------------------------------------|
- -000-000-000-------000-0-000-------000-0-000-------000-0-000-000--|
- -000-000-000-------000-0-000-------000-0-000-------000-0-000-000--|
PM ...........       .........       .........       .............

- -----------------------------------------------------------------|
- -----------------------------------------------------------------|
- -----------------------------------------------------------------|
- -----------------------------------------------------------------|
- -000-000-000-------000-0-000-------000-0-000-------000-0-000-000-|
- -000-000-000-------000-0-000-------000-0-000-------000-0-000-000-|
PM ...........       .........       .........       .............

- -----------------------------------------------------------------|
- -----------------------------------------------------------------|
- -----------------------------------------------------------------|
- -----------------------------------------------------------------|
- -111-111-111-------111-1-111-------777-7-777-------777-7-777-777-|
- -333-333-333-------333-3-333-------777-7-777-------777-7-777-777-|
PM ...........       .........       .........       .............

[Riff 3b] - [00:53] - [01:25--------------------------------------------------------------| - [x2]
- ----------------------------------------------------------------------------------------|
- ----------------------------------------------------------------------------------------|
- -14--------------14--------------14---------14--------------14--------------14----------|
- ------12-12-12--------12-12-12--------12-12------12-12-12--------12-12-12--------12-12--|
- ----------------------------------------------------------------------------------------|
- ----------------------------------------------------------------------------------------|
PM      ........        ........        .....      ........        ........        .....

- ---------------------------------------------------------------------------------------|
- ---------------------------------------------------------------------------------------|
- -15--------------15--------------15---------15--------------15--------------15---------|
- ------12-12-12--------12-12-12--------12-12------12-12-12--------12-12-12--------12-12-|
- ---------------------------------------------------------------------------------------|
- ---------------------------------------------------------------------------------------|
PM      ........        ........        .....      ........        ........        .....

- ---------------------------------------------------------------------------------------|
- ---------------------------------------------------------------------------------------|
- -14--------------14--------------14---------14--------------14--------------14---------|
- ------12-12-12--------12-12-12--------12-12------12-12-12--------12-12-12--------12-12-|
- ---------------------------------------------------------------------------------------|
- ---------------------------------------------------------------------------------------|
PM      ........        ........        .....      ........        ........        .....

- ---------------------------------------------------------------------------------------|
- ---------------------------------------------------------------------------------------|
- -12--------------12--------------12---------15--------------15--------------15---------|
- ------12-12-12--------12-12-12--------12-12------12-12-12--------12-12-12--------12-12-|
- ---------------------------------------------------------------------------------------|
- ---------------------------------------------------------------------------------------|
PM      ........        ........        .....      ........        ........        .....

- ---------------------------------------------------------------------------------------|
- ---------------------------------------------------------------------------------------|
- ---------------------------------------------------------------------------------------|
- -15---12-12-12---15---12-12-12---15---12-12-15---12-12-12---15---12-12-12---15---12-12-|
- ---------------------------------------------------------------------------------------|
- ---------------------------------------------------------------------------------------|
PM      ........        ........        .....      ........        ........        .....

- ---------------------------------------------------------------------------------------|
- ---------------------------------------------------------------------------------------|
- ------------------------------------------------------------12--------------12---------|
- -14---12-12-12---14---12-12-12---14---12-12-14---12-12-12--------12-12-12--------12-12-|
- ---------------------------------------------------------------------------------------|
- ---------------------------------------------------------------------------------------|
PM      ........        ........        .....      ........        ........        .....

[Riff 4a] - [01:25] - [01:29]
- ---------------------------------|
- ---------------------------------|
- ---------------------------------|
- -0~--------------7---------------|
- -0~--------------7---------------|
- -0~--------------7---------------|

[Riff 4, Guitar 1 & 2] - [01:25] - [01:29]
- -------------------------------------------------------------------------|
- -----------------------------------------------------------------17br----|
- --------------------------14---12---15---14-14-14-18-18-18-14-14---------|
- -12p0---12---12---15p14--------------------------------------------------|
- -------------------------------------------------------------------------|
- ------0----0----0-------0----0----0----0---------------------------------|
PM      .    .    .       .    .    .    .
- -----------------------------------------------------------------15br----|
- -----------------------------------------14-14-14-17-17-17-14-14---------|
- -------------------------------------------------------------------------|
- -------------------------------------------------------------------------|
- -------------------------------------------------------------------------|
- -------------------------------------------------------------------------|

[Riff 5, Guitar 1 & 2] - [01:29] - [01:56]
- ----------------------------------------------------------------------------------------|
- ----------------------------------------------------------------------------------------|
- --------------------------14---12---15--------------------------------------------------|
- -12p0---12---12---15p14---------------------------14-------------14----14~--14-12-14-15-|
- --------------------------------------------------------12-------12----12~--------------|
- ------0----0----0-------0----0----0----0-11-11-11----11----11-11-11-11-11~--------------|
PM      .    .    .       .    .    .    ..........    ..    .....    ..
- ----------------------------------------------------------------------------------------|
- ----------------------------------------------------------------------------------------|
- --------------------------14---12---15--------------------------------------------------|
- -12p0---12---12---15p14---------------------------14-------------14----14~--14-12-14-15-|
- --------------------------------------------------------12-------12----12~--------------|
- ------0----0----0-------0----0----0----0-11-11-11----11----11-11-11-11-11~--------------|
PM      .    .    .       .    .    .    ..........    ..    .....    ..


- -------------------------------------------------------------------------------|
- -------------------------------------------------------------------------------|
- -14-14-14----------------------------9-9-10-10---------------7-----------------|
- ----------10-10-10-12-12-12--------------------7p5---7---8-------8-----7---7h8-|
- -------------------------------------------------------------------------8-----|
- ----------------------------10-10-10---------------5---5---5---5---5-5---------|
PM                                                   .   .   .   .   ...   .
- -------------------------------------------------------------------------------|
- -------------------------------------------------------------------------------|
- -14-14-14----------------------------9-9-10-10---------------7-----------------|
- ----------10-10-10-12-12-12--------------------7p5---7---8-------8-----7---7h8-|
- -------------------------------------------------------------------------8-----|
- ----------------------------10-10-10---------------5---5---5---5---5-5---------|
PM                                                   .   .   .   .   ...   .


- --------------------------------------------------------------------------------|
- --------------------------10------------------------------8h10---8--------------|
- -------------------10p9--------------------9-9---10---9--------------10p9-------|
- -10-10---12---10---------------------10h12--------------------------------12p10-|
- ------------------------8----8-10h12-----------7----7---7------7---7------------|
- -------8----8----8--------------------------------------------------------------|
PM       .    .    .      .    .                 .    .   .      .   .
- --------------------------------------------------------------------------------|
- --------------------------10------------------------------8h10---8--------------|
- -------------------10p9--------------------9-9---10---9--------------10p9-------|
- -10-10---12---10---------------------10h12--------------------------------12p10-|
- ------------------------8----8-10h12-----------7----7---7------7---7------------|
- -------8----8----8--------------------------------------------------------------|
PM       .    .    .      .    .                 .    .   .      .   .


- -----------------------------------------------------------------------------------------------|
- -----------------------------------------------------------------------------------------------|
- ------------------------------14----12----15---------------------------------------------------|
- -12p0----12----12----15p14-------------------------------14-------------14----14~--14-12-14-15-|
- ---------------------------------------------------------------12-------12----12~--------------|
- ------12----12----12-------12----12----12----12-11-11-11----11----11-11-11-11-11~--------------|
PM      ..    ..    ..       ..    ..    ..    ...........    ..    .....    ..
- -----------------------------------------------------------------------------------------------|
- ------------------------------13---------------------------------------------------------------|
- ---------------------14p12----------15----12---------------------------------------12-10-12-14-|
- -15p0----15----15----------------------------------------14-------------14----14~--------------|
- ---------------------------------------------------------------12-------12----12~--------------|
- ------12----12----12-------12----12----12----12-11-11-11----11----11-11-11-11-11~--------------|
PM      ..    ..    ..       ..    ..    ..    ...........    ..    .....    ..


- -------------------------------------------------------------------------------|
- -------------------------------------------------------------------------------|
- -14-14-14----------------------------9-9-10-10---------------7-----------------|
- ----------10-10-10-12-12-12--------------------7p5---7---8-------8-----7---7h8-|
- -------------------------------------------------------------------------8-----|
- ----------------------------10-10-10---------------5---5---5---5---5-5---------|
PM                                                   .   .   .   .   ...   .
- -------------------------------------------------------------------------------|
- -------------------------------------------------------------------------------|
- -14-14-14----------------------------9-9-10-10---------------7-----------------|
- ----------10-10-10-12-12-12--------------------7p5---7---8-------8-----7---7h8-|
- -------------------------------------------------------------------------8-----|
- ----------------------------10-10-10---------------5---5---5---5---5-5---------|
PM                                                   .   .   .   .   ...   .


- --------------------------------------------------------------------------------|
- --------------------------10----------------------------------------------------|
- -------------------10p9--------------------9-9---10---9-----9b------------------|
- -10-10---12---10---------------------10h12--------------------------------------|
- ------------------------8----8-10h12-----------7----7---0-0---------------------|
- -------8----8----8--------------------------------------0-0---------------------|
PM       .    .    .      .    .                 .    .   ...
- --------------------------------------------------------------------------------|
- --------------------------10---------------8-8---10---8-----8b------------------|
- -------------------10p9---------------------------------------------------------|
- -10-10---12---10---------------------10h12--------------------------------------|
- ------------------------8----8-10h12-----------7----7---0-0---------------------|
- -------8----8----8--------------------------------------0-0---------------------|
PM       .    .    .      .    .                 .    .   ...


[Riff 5a] - [01:56] - [02:13]
- -----------------------------------------------------------------------|
- -----------------------------------------------------------------------|
- ----------7v-----------7v-------------------7v--12p0-----12p0-11p0-7p0-|
- -----8h10---------8h10-----------------8h10----------------------------|
- -0-0----------0-0----------7-7-0-0-0-0---------------0-0---------------|
- -0-0----------0-0----------7-7-0-0-0-0---------------0-0---------------|
PM ...          ...          ...........               ...

- -------------------------------------------------------10-9------9-------|
- -----------------------------------------------------8------8------11-10-|
- ----------7v-----------7v--------------12p0-11p0-7p0----------10---------|
- -----8h10---------8h10---------------------------------------------------|
- -0-0----------0-0----------7-7-0-0-0-0-----------------------------------|
- -0-0----------0-0----------7-7-0-0-0-0-----------------------------------|
PM ...          ...          ...........

- -----------------------------------------------------------------------|
- -----------------------------------------------------------------------|
- ----------7v-----------7v-------------------7v--12p0-----12p0-11p0-7p0-|
- -----8h10---------8h10-----------------8h10----------------------------|
- -0-0----------0-0----------7-7-0-0-0-0---------------0-0---------------|
- -0-0----------0-0----------7-7-0-0-0-0---------------0-0---------------|
PM ...          ...          ...........               ...

- -------------------------------------------------------10-9------9-----------------------|
- -----------------------------------------------------8------8------11-10-----------------|
- ----------7v-----------7v--------------12p0-11p0-7p0----------10---------7~--------------|
- -----8h10---------8h10-------------------------------------------------------------------|
- -0-0----------0-0----------7-7-0-0-0-0---------------------------------------------------|
- -0-0----------0-0----------7-7-0-0-0-0---------------------------------------------------|
PM ...          ...          ...........

[Riff 5b] - [01:56] - [02:13]
- -----------------------------------------------------------------------------------|
- -----------------------------------------------------------------------------------|
- -----------------------------------------------------------------------------------|
- -15p0-12h14h15p0-10p-12h14h15p0-15p0-11p0-15p0-12h14h15p0-10p-12h14h15p0-15p0-11p0-|
- -----------------------------------------------------------------------------------|
- -----------------------------------------------------------------------------------|

- ---------------------------------------------------------------13-12-------12-------|
- ------------------------------------------------------------11-------11-------15-14-|
- ------------------------------------------------------------------------14----------|
- -15p0-12h14h15p0-10p-12h14h15p0-11p0---------15p0-14p0-11p0-------------------------|
- -------------------------------------0-0-0-0----------------------------------------|
- -------------------------------------0-0-0-0----------------------------------------|
PM                                     .......

- -----------------------------------------------------------------------------------|
- -----------------------------------------------------------------------------------|
- -----------------------------------------------------------------------------------|
- -15p0-12h14h15p0-10p-12h14h15p0-15p0-11p0-15p0-12h14h15p0-10p-12h14h15p0-15p0-11p0-|
- -----------------------------------------------------------------------------------|
- -----------------------------------------------------------------------------------|

- ---------------------------------------------------------------13-12-------12-----------------------|
- ------------------------------------------------------------11-------11-------15-14-15~-------------|
- ------------------------------------------------------------------------14--------------------------|
- -15p0-12h14h15p0-10p-12h14h15p0-11p0---------15p0-14p0-11p0-----------------------------------------|
- -------------------------------------0-0-0-0--------------------------------------------------------|
- -------------------------------------0-0-0-0--------------------------------------------------------|
PM                                     .......

5/4

[Riff 6] - [02:13] - [02:27]
- -------------------------------------------|
- -------------------------------------------|
- -------------------------------------------| don't let notes ring out
- -------------------------------------------|
- -0---0-0---0---0-0-0-0---0-0---0---0h7h8-4-|
- -0---0-0---0---0-0-0-0---0-0---0-----------|
PM ...............................

- -----------------------------------------|
- -----------------------------------------|
- -----------------------------------------|
- -----------------------------------------|
- -0---0-0---0---0-0-0-0---0-0---0---000-0-|
- -0---0-0---0---0-0-0-0---0-0---0---000-0-|
PM .......................................

- -------------------------------------------|
- -------------------------------------------|
- -------------------------------------------|
- -------------------------------------------|
- -0---0-0---0---0-0-0-0---0-0---0---0h7h8-4-|
- -0---0-0---0---0-0-0-0---0-0---0-----------|
PM ...............................

- -----------------------------------------|
- -----------------------------------------|
- -----------------------------------------|
- -----------------------------------------|
- -0---0-0---0---0-0-0-0---0-0---0---000-0-|
- -0---0-0---0---0-0-0-0---0-0---0---000-0-|
PM .......................................

- -------------------------------------------|
- -------------------------------------------|
- -------------------------------------------|
- -------------------------------------------|
- -0---0-0---0---0-0-0-0---0-0---0---0h7h8-4-|
- -0---0-0---0---0-0-0-0---0-0---0-----------|
PM ...............................

[Riff 7a] - [02:27] - [02:42]
- -5-5-5-5-5-5-5-5-5-5-5-5-5-5-5-5---------------------------------|
- -6-6-6-6-6-6-6-6-6-6-6-6-6-6-6-6-5-5-5-5-5-5-5-5-5-5-5-5-5-5-5-5-|
- -7-7-7-7-7-7-7-7-7-7-7-7-7-7-7-7-6-6-6-6-6-6-6-6-6-6-6-6-6-6-6-6-|
- -7-7-7-7-7-7-7-7-7-7-7-7-7-7-7-7-7-7-7-7-7-7-7-7-7-7-7-7-7-7-7-7-|
- -5-5-5-5-5-5-5-5-5-5-5-5-5-5-5-5-4-4-4-4-4-4-4-4-4-4-4-4-4-4-4-4-|
- -----------------------------------------------------------------|

- -----------------------------------------------------------------|
- -5-5-5-5-5-5-5-5-5-5-5-5-5-5-5-5---------------------------------|
- -5-5-5-5-5-5-5-5-5-5-5-5-5-5-5-5---------------------------------|
- -5-5-5-5-5-5-5-5-5-5-5-5-5-5-5-5-------------5~----5-5-5-5-5-5/7-|
- -3-3-3-3-3-3-3-3-3-3-3-3-3-3-3-3-5-5-5-5-5-5-5~----5-5-5-5-5-5/7-|
- ---------------------------------5-5-5-5-5-5-5~----5-5-5-5-5-5/7-|
PM                                 ...........

- -------------------------------------------------------------------------------------------------|
- -------------------------------------------------------------------------------------------------|
- -------------------------------------------------------------------------------------------------|
- -12-12-12-12-12-12-12-12-12-12-12-12-12-12-12\11-11-11-11-11-11-11-11-11-11-11-11-11-11-11-11-11-|
- -8--8--8--8--8--8--8--8--8--8--8--8--8--8--8\-7--7--7--7--7--7--7--7--7--7--7--7--7--7--7--7--7--|
- -8--8--8--8--8--8--8--8--8--8--8--8--8--8--8\-7--7--7--7--7--7--7--7--7--7--7--7--7--7--7--7--7--|

[Riff 7b] - [02:27] - [02:42]
- --------------------------------------------------------------------------------------------|
- ----------10--------------------------10---------------10-----------------------------------|
- ----10-------9----10----9h10----10-------9h10----10-------9----10----9h10----10-------------|
- -12----12------12----12------12----12---------12----12------12----12------12----------10h12-|
- --------------------------------------------------------------------------------10h12-------|
- --------------------------------------------------------------------------------------------|
PM ..    ..      ..    ..      ..    ..         ..    ..      ..    ..      ..

- -----------------------------------------------------------------------------------------------|
- ----------10--------------------------10-------13-13-13----------------------------------------|
- ----10-------9----10----9h10----10-------9h10-----------12-12-12-14br--------------------12-12-|
- -12----12------12----12------12----12-------------------------------------14-14-14-15-15-------|
- -----------------------------------------------------------------------------------------------|
- -----------------------------------------------------------------------------------------------|
PM ..    ..      ..    ..      ..    ..

- -------------------------------------------13-13-15-15-15-13-13-13-15-15-17-17-17---/21b-----|
- ----------15-15-15-17-17-17-15-15-15-17-17---------------------------------------------------|
- -14-14-14------------------------------------------------------------------------------------|
- ---------------------------------------------------------------------------------------------|
- ---------------------------------------------------------------------------------------------|
- ---------------------------------------------------------------------------------------------|

[Riff 8] - [02:42] - [02:52]
- -0~--------------0~--------------0~--------------0~---------------------|
- -6~--------------6~--------------6~--------------6~---------------------|
- -7~--------------7~--------------7~--------------7~---------------------|
- -0~--------------0~--------------0~--------------0~---------------------|
- -0~------------0-0~--------------0~------------0-0~------0-0-0-0-0------|
- -0~------------0-0~--------------0~------------0-0~------0-0-0-0-0------|
PM               .                               .         .........

clean

[Riff 9a] - [02:52] - [03:47]
- ----------13----------------------13----------------------12----------------------12-------------|
- -------------10----------------------10----------------------10----------------------10----------|
- ----10-------------10-------10-------------10-------10-------------10-------10-------------10----|
- -12----12-------12----12-12----12-------12----12-11----11-------11----11-11----11-------11----11-|
- -------------------------------------------------------------------------------------------------|
- -------------------------------------------------------------------------------------------------|

- ----------13----------------------13----------------------12----------------------12-------------|
- -------------10----------------------10----------------------10----------------------10----------|
- ----10-------------10-------10-------------10-------10-------------10-------10-------------10----|
- -12----12-------12----12-12----12-------12----12-11----11-------11----11-11----11-------11----11-|
- -------------------------------------------------------------------------------------------------|
- -------------------------------------------------------------------------------------------------|

- ----------13----------------------13----------------------12----------------------12-------------|
- -------------10----------------------10----------------------10----------------------10----------|
- ----10-------------10-------10-------------10-------10-------------10-------10-------------10----|
- -12----12-------12----12-12----12-------12----12-11----11-------11----11-11----11-------11----11-|
- -------------------------------------------------------------------------------------------------|
- -------------------------------------------------------------------------------------------------|

- ----------13----------------------13----------------------15----------------------15-------------|
- -------------10----------------------10----------------------12----------------------12----------|
- ----10-------------10-------10-------------10-------12-------------12-------12-------------12----|
- -10----10-------10----10-10----10-------10----10-12----12-------12----12-12----12-------12----12-|
- -------------------------------------------------------------------------------------------------|
- -------------------------------------------------------------------------------------------------|

- ----------17----------------------17----------------------17----------------------17-------------|
- -------------15----------------------15----------------------14----------------------14----------|
- ----15-------------15-------15-------------15-------14-------------14-------14-------------14----|
- -15----15-------15----15-15----15-------15----15-14----14-------14----14-14----14-------14----14-|
- -------------------------------------------------------------------------------------------------|
- -------------------------------------------------------------------------------------------------|

- ----------13----------------------13----------------------12----------------------12-------------|
- -------------10----------------------10----------------------10----------------------10----------|
- ----10-------------10-------10-------------10-------10-------------10-------10-------------10----|
- -12----12-------12----12-12----12-------12----12-11----11-------11----11-11----11-------11----11-|
- -------------------------------------------------------------------------------------------------|
- -------------------------------------------------------------------------------------------------|

- ----------13----------------------13----------------------15----------------------15-------------|
- -------------10----------------------10----------------------12----------------------12----------|
- ----10-------------10-------10-------------10-------12-------------12-------12-------------12----|
- -10----10-------10----10-10----10-------10----10-12----12-------12----12-12----12-------12----12-|
- -------------------------------------------------------------------------------------------------|
- -------------------------------------------------------------------------------------------------|

- ----------17----------------------17----------------------17----------------------17-------------|
- -------------15----------------------15----------------------14----------------------14----------|
- ----15-------------15-------15-------------15-------14-------------14-------14-------------14----|
- -15----15-------15----15-15----15-------15----15-14----14-------14----14-14----14-------14----14-|
- -------------------------------------------------------------------------------------------------|
- -------------------------------------------------------------------------------------------------|

[Riff 9b] - [03:02] - [03:17]
- -------------------------------------------------|
- -------------------------------------------------|
- -2-------2-------2-------2-------2-------2-------|
- -3-------3-------3-------3-------3-------2-------|
- -5~------4~------3~------2~------1~------0~------|
- -------------------------------------------------|

[Riff 9c] - [03:17] - [03:47]
- ---------------------------------------------------------|
- ---------------------------------------------------------|
- ---------------------------------------------------------|
- ---------------------------------------------------------|
- -0h5/12v-------------12hp13p12-10----8---7----/10---/12--|
- ---------------------------------------------------------|

- -------------------------------------------------------------|
- -------------------------------------------------------------|
- -------------------------------------------------10/12-12/14-|
- ----------------/15----14--------10/12v----------------------|
- -----------------------------15------------------------------|
- -10v---------------------------------------------------------|

- -------------------------------------------------15h17-17v-----|
- -----------------15--------------14br--17----14----------------|
- -15v---------15--------14----15--------------------------------|
- ---------------------------------------------------------------|
- ---------------------------------------------------------------|
- ---------------------------------------------------------------|

- -17----13-------13-17br--13---------------------13-------------------------|
- -------------15--------------15-14-15-------17-----17-15-14----------------|
- --------------------------------------14-----------------------------------|
- ---------------------------------------------------------------15----17----|
- ---------------------------------------------------------------------------|
- ---------------------------------------------------------------------------|

- -------------------------------------------------------------------------|
- ------------------------------------------------------13-17br------------|
- --------------------------------------------------/14----------14----17--|
- -----------------17p15----------------15--15/17--------------------------|
- -15v--------------------17\--12/15-12------------------------------------|
- -------------------------------------------------------------------------|

- -------------------15----15br-----------------------17----------------------------------------------------|
- ----14/15-18-15-18----18-------18-17-15-14-15---------------14h17-14--------------------------------------|
- -17-------------------------------------------14br-------------------15-14-------------14-----------------|
- ---------------------------------------------------------------------------15-14-15/17--------------------|
- ------------------------------------------------------------------------------------------17v-------------|
- ----------------------------------------------------------------------------------------------------------|

[Riff 2] - [03:47] - [03:57]
[Riff 3a] - [03:57] - [04:29]
[Riff 3b] - [03:57] - [04:29]

[Riff 10] - [04:13] - [04:29]
- ---------------------------------------------------------------------------------|
- ---------------------------------------------------------------------------------|
- -10-----10-----10----10-----10-----10----12-----12-----12----12-----12-----12----|
- ----777----777----77----777----777----77----777----777----77----777----777----77-|
- ---------------------------------------------------------------------------------|
- ---------------------------------------------------------------------------------|
PM    ...    ...    ..    ...    ...    ..    ...    ...    ..    ...    ...    ..

- ---------------------------------------------------------------------------------|
- ---------------------------------------------------------------------------------|
- -10-----10-----10----10-----10-----10----9------9------9-----12-----12-----12----|
- ----777----777----77----777----777----77----777----777----77----777----777----77-|
- ---------------------------------------------------------------------------------|
- ---------------------------------------------------------------------------------|
PM    ...    ...    ..    ...    ...    ..    ...    ...    ..    ...    ...    ..

- ---------------------------------------------------------------------------------|
- ---------------------------------------------------------------------------------|
- --------------------------------------------------------------------9------9-----|
- -12-777-12-777-12-77-12-777-12-777-12-77-11-777-11-777-11-77-11-777----777----77-|
- ---------------------------------------------------------------------------------|
- ---------------------------------------------------------------------------------|
PM    ...    ...    ..    ...    ...    ..    ...    ...    ..    ...    ...    ..

[Riff 11, Guitar 1 & 2] - [04:29] - [04:43]
- -----------------------------------------------------------------|
- -----------------------------------------------------------------|
- -----------------------------------------------------------------|
- -0~--------------------------------------------------------------|
- -0~--------------------------------------------------------------|
- -0~--------------------------------------------------------------|
-
- -----------------------------------------------------------------|
- -----------------------------------------------------------------|
- -----------------------------------------------------------------|
- -12~-(third playing the harmony is on the 15th fret)-------------|
- -----------------------------------------------------------------|
- -----------------------------------------------------------------|

[Symbols]

PM... Palm Mute notes with (...) under them
AP... Alternate Pick notes with (...) under them
h     Hammer On
p     Pull Off
[ ]   Harmonic
/     Slide Up
\     Slide Down
x     Dead Note
b     Bend
p     Pre-Bend
r     Release Bend
(x )  Play Notes x amount of times
~     Let Ring
/ 3 \ Notes are triplets (3 notes in the space of two)
w\    Whammy Bar Down
w/    Whammy Bar Up
T     Right Hand Tap

:)

            
            
Suggest correction
Creating personal tab
Creating personal tab
You can edit any tab online and save it as your Personal.

You can edit, replace or remove any tab part or add personal notes – all changes will be seen only by you.

Personal tabs can be accessed anytime from any device, even offline.
Learn more »
Give kudos to tab author, rate the tab!
1 2 3 4 5
comments
print report bad tab
guest
You may want to rate the tab now too:
select rating
Wanna post a correction for this tab? Suggest correction