Oops, an error
Loading. Please wait.

Carol Of The Bells Bass Tab

version 1
version 1

Whole song

Interactive

23,972 views 21 this week
no commentswrite comment
1 2 3 4 5
excellent!
x 8
add to favorites
launch autoscroll
font size
0
reset
guitar tuner
Autoscroll
slow
fast
+/-
esc
set tempo
stop
Help us to improve Ultimate-Guitar.com Take our survey!
×
Author
Carol of the Bells
-August burns Red

*Bass tab

*Drop C

____________________________________________________________________________

F|----------------------------------------|
C|----------------------------------------|
G|----------------------------------------|
C|-12~--------10~--------8~--------7~-----|

F|-------------------------------------------------------|
C|-------------------------------------------------------|
G|-------------------------------------------------------|
C|-12-(x12)-------10-(x12)-------8-(x12)-------7-(x12)---| 


****g's mean grab the string***

F|----------------------------------|
C|----------------------------------|
G|----------------------------------|
C|-12g------7g------5~------0~------|

F|---------------------------------|
C|---------------------------------|
G|-0-4-5--7h8-7-5--0-4-5-7h8-7-5---|
C|---------------------------------|

F|----------------------------|
C|----------------------------|
G|----------------------------|
C|-12~----10~----8~----7~-----|

F|----------------------------|
C|----------------------------|
G|-12~---10~---8~----------7~-|
C|----------------------------|

F|-------------------------------------|
C|-------------------------------------|
G|-0-4-5--7h8-7-5--0-4-5-7h8-7---17/---|
C|-------------------------------------|

*Breakdown*
F|---------------------------------------------------|
C|---------------------------------------------------|
G|---------------------------------------------------|
C|-0-000-00000-00000-000-00000-00000-000-00000-00000-|

F|----------------------------|
C|----------------------------|
G|-0--4--5--7-8-7-------------|
C|-----------------------0-0--|

F|-------------------------------------|
C|-------------------------------------|
G|-0-4-5--7h8-7-5--0-4-5-7h8-7---17/---|
C|-------------------------------------|

F|----------------------------|
C|----------------------------|
G|----------------------------|
C|-12~----10~----8~----7~-----|

F|-----|
C|-----|
G|-----|
C|-0~--|


-you repeat some of it, but figure it out, it's very simple. 

enjoi  :]
Suggest correction
comments
print report bad tab
guest
You may want to rate the tab now too:
select rating
Please do not post tabs as comments. Select "correction" instead!