Oops, an error
Loading. Please wait.

Carol Of The Bells Tab

version 1
version 1

Interactive

97,207 views 54 this week
2 commentsread comments
1 2 3 4 5
accurate
x 3
add to favorites
launch autoscroll
font size
0
reset
how to read this tab
guitar tuner
Autoscroll
slow
fast
+/-
esc
set tempo
stop
Help us to improve Ultimate-Guitar.com Take our survey!
×
Author
Difficulty
Tuning
novice
C G C F A D
----------------------------------------------------------------------------
                             Carol of the Bells - August Burns Red
----------------------------------------------------------------------------
Tabbed by:Michaelface.Tx
Email:baseballmike7@hotmail.com

Tuning:Drop C

 h  hammer-on
 .  Palm Mute


*Bells Playing*



|-----------------------[repeat x16]----|
|-----------------------.--.-.--.-.-.---|
|----------------------10-10-9-10-7-7---|
|3-2h3-0[repeat x16]--------------------|
|---------------------------------------|
|---------------------------------------|

|-------------------------------------------------------------------------|
|-------15-15-15-15-13-11-10-10-10-10-8----8-8-8-8-10-11------------------|
|---------------------------------------10--------------------------------|
|-------------------------------------------------------12-12-12-12-12----|
|-------------------------------------------------------------------------|
|-------------------------------------------------------------------------|

|-------------------------------|
|-------------------------------|
|-------------------------------|
|-------------------------------|
|-0-0-4-4-5-5-7-8-5-5[repeat x2]|
|-------------------------------|


|----------------------[repeat x16]-----|
|---------------------------------------|
|----------------------10-9-10-7--------|
|3-2h3-0[repeat x16]--------------------|
|---------------------------------------|
|---------------------------------------|



|-------------------------------------------------------------------------|
|-------15-15151515-13-11-10-1010101010-8----8-8888-10-11-----------------|
|-----------------------------------------10------------------------------|
|--------------------------------------------------------12-12121212122---|
|-------------------------------------------------------------------------|
|-------------------------------------------------------------------------|


|--------------------|
|--------------------|
|--------------------|
|--------------------|
|0-0-4-4-5-5-7-8-5-5-|
|--------------------|



|-------------------------------------------------------------------------|
|-------------------------------------------------------------------------|
|-------------------------------------------------------------------------|
|-------------------------------------------------------------------------|
|-0-000-000-000-[repeat 8x]-----------------------------------------------|
|-0-000-000-000-listen for timing-----------------------------------------|


|-------------------------------------------------------------------------|
|-------15-15151515-13-11-10-1010101010-8----8-8888-10-11-----------------|
|-----------------------------------------10------------------------------|
|--------------------------------------------------------12-12121212122---|
|-------------------------------------------------------------------------|
|-------------------------------------------------------------------------|


|--------------------------------|
|--------------------------------|
|--------------------------------|
|--------------------------------|
|0-0-4-4-5-5-7-8-5-5-[repeat x2]-|
|--------------------------------|


|-[repeat x8]---|
|---------------|
|-10-9-10-7-----|
|---------------|
|---------------|
|---------------|


|-------------------------------------------------------------------------|
|-------15-15151515-13-11-10-1010101010-8----8-8888-10-11-----------------|
|-----------------------------------------10------------------------------|
|--------------------------------------------------------12-12121212122---|
|-------------------------------------------------------------------------|
|-------------------------------------------------------------------------|


|-------------------------------------------------------------------------|
|-------------------------------------------------------------------------|
|-------------------------------------------------------------------------|
|----------------------2nd guitar comes in here---------------------------|
|0-0-4-4-5-5-7-8-5-5-----------------------------0-0-4-4-5-5-7-8-5-5------|
|-------------------------------------------------------------------------|


|----------------------[repeat x8]------|
|---------------------------------------|
|----------------------10-9-10-7--------|
|3-2h3-0[repeat x8]---------------------|
|---------------------------------------|
|---------------------------------------|


============================================================================
Suggest correction
Give kudos to tab author, rate the tab!
1 2 3 4 5
comments
print report bad tab
2 comments total.
0 reply
SeanC15 10 wrote on December 6 2009, 05:31 pm

thanks bud. im gonna be playing it this christmas ;)

0 reply
forcebreaker 10 wrote on November 27 2012, 09:16 am

Great tab!

guest
You may want to rate the tab now too:
select rating
Please do not post tabs as comments. Select "correction" instead!