Oops, an error
Loading. Please wait.

Carol Of The Bells Bass Tab

version 3
version 3

Whole song

Interactive

1,923 views 6 this week
1 commentread comment
1 2 3 4 5
2 more votes to show rating
add to favorites
launch autoscroll
font size
0
reset
guitar tuner
Autoscroll
slow
fast
+/-
esc
set tempo
stop
Help us to improve Ultimate-Guitar.com Take our survey!
×
Author
Difficulty
intermediate
Carol Of The Bells
August Burns Red
standard 5 string tuning BEADG

(0:15)
G|-----------------------------------|
D|-----------------------------------|
A|---3~-------1~---------------------|
E|---------------------4~-------3~---|
B|-----------------------------------|

G|---------------------------------------------------------------------------|
D|---------------------------------------------------------------------------|
A|---3--3--3--3--3--3--1--1--1--1--1--1--------------------------------------|
E|---------------------------------------4--4--4--4--4--4--3--3--3--3--3--3--|
B|---------------------------------------------------------------------------|

G|---------------------------------------------------|
D|---------------------------------------------------|
A|---3(x12)-------1(x12)-----------------------------|
E|-----------------------------4(x12)-------3(x12)---|
B|---------------------------------------------------|

G|----------------------------|
D|----------------------------|
A|---3------------------------|
E|----------3------1----------|
B|------------------------1---|

G|----------------------------------------|
D|--------0h1p0------------0h1p0----------|
A|---2-3----------3----2-3----------3-----|
E|-3------------------3-------------------|
B|----------------------------------------|

G|-----------------------------------|
D|-----------------------------------|
A|---3~-------1~---------------------|   (x4)
E|---------------------4~-------3~---|
B|-----------------------------------|

G|-----------------------------------------------------|
D|-----------------------------------------------------|
A|---3-3-3-3-3-3---------------------------------------|
E|---------------3-3-3-3-3-3-1-1-1-1-1-1---------------|
B|---------------------------------------1-1-1-1-1-1---|

G|------------------------------5---|
D|--------0h1p0---------0-1h3p1-----|
A|---2-3--------3---2-3-------------|
E|-3--------------------------------|
B|----------------------------------|

*Breakdown*
G|-------------------------------------------------------|
D|-------------------------------------------------------|
A|-------------------------------------------------------|
E|-------------------------------------------------------|
B|-1-111-11111-11111-111-11111-11111-111-11111-11111-----|

G|-----------------------------------------------------|
D|-----------------------------------------------------|
A|---3-3-3-3-3-3---------------------------------------|
E|---------------3-3-3-3-3-3-1-1-1-1-1-1---------------|
B|---------------------------------------1-1-1-1-1-1---|

G|--------------------------------------|
D|--------0h1p0------------0h1p0--------|
A|---2-3----------3----2-3----------3---|
E|-3------------------3-----------------|
B|--------------------------------------|

*Breakdown*
G|-------------------------------------------------------|
D|-------------------------------------------------------|
A|-------------------------------------------------------|
E|-------------------------------------------------------|
B|-1-111-11111-11111-111-11111-11111-111-11111-11111-----|

G|-----------------------------------------------------|
D|-----------------------------------------------------|
A|---3-3-3-3-3-3---------------------------------------|
E|---------------3-3-3-3-3-3-1-1-1-1-1-1---------------|
B|---------------------------------------1-1-1-1-1-1---|

G|---------------------|---------------------|------------------------|-----------------------|
D|---------------------|---------------------|------------------------|-----------------------|
A|---------------------|---------------------|------------------------|-----------------------|
E|---------------------|---------------------|------------------------|-----------------------|
B|-----------------1-1-|-----------------1-1-|--------------------1-1-|-----------------------|
Counting          (6 +)                 (6 +)                    (6 +)


G|-----------------------------------|
D|-----------------------------------|
A|---3~-------1~---------------------|   (x4)
E|---------------------4~-------3~---|
B|-----------------------------------|

G|-------|
D|-------|
A|-------|
E|-------|
B|-1~~~~~|
Suggest correction
Give kudos to tab author, rate the tab!
1 2 3 4 5
comments
print report bad tab
1 comment total.
0 reply
petey1993 52 Dec 11, 2010 12:36 PM

perfect job! and i finally get to use my b string in a christmas song! :) great job man.

guest
You may want to rate the tab now too:
select rating
Wanna post a correction for this tab? Suggest correction