Oops, an error
Loading. Please wait.

Carol Of The Bells Tab

version 3
version 3

Interactive

16,371 views 3 this week
1 commentread comment
1 2 3 4 5
accurate
x 4
add to favorites
launch autoscroll
font size
0
reset
how to read this tab
guitar tuner
Autoscroll
slow
fast
+/-
esc
set tempo
stop
Help us to improve Ultimate-Guitar.com Take our survey!
×
Difficulty
Tuning
intermediate
C G C F A D
-------------------------------------------------------------------------------
                     Carol of the Bells - August Bruns Red
-------------------------------------------------------------------------------
Tabbed by: Samir Raman (headbanger703)
Email: smeerios@yahoo.com

Tuning: Drop C

This is the Christmas song that ABR posted on their myspace page. Enjoy!

Guitar 1:
|---------------------------------------------------------------------------|
|---------------------------------------------------------------------------|
|---------------------------------------------------------------------------|
|-3-2h3-0--3-2h3-0--3-2h3-0--3-2h3-0--3-2h3-0--3-2h3-0--3-2h3-0--3-2h3-0----| 
|---------------------------------------------------------------------------|
|---------------------------------------------------------------------------|
Guitar 2: After first repetition
|---------------------------------------------------------------------------|
|---------------------------------------------------------------------------|
|---------------------------------------------------------------------------|
|-7-5h7----7-5h7----7-5h7----7-5h7----7-5h7----7-5h7----7-5h7----7-5h7------| 
|-------8--------8--------8--------8--------8--------8--------8--------8----|
|---------------------------------------------------------------------------|

Guitar 1:
|---------------------------------------------------------------------------|
|---------------------------------------------------------------------------|
|-10-10-9-10-7-7--10 10-9-10-7-7--10 10-9-10-7-7--10 10-9-10-7-7------------|
|---------------------------------------------------------------------------| 
|---------------------------------------------------------------------------|
|---------------------------------------------------------------------------|
Guitar 2: After first repetition
|---------------------------------------------------------------------------|
|---------------------------------------------------------------------------|
|-14-14-12-14-10-10--14-14-12-14-10-10--14-14-12-14-10-10--14-14-12-14-10-10|
|---------------------------------------------------------------------------| 
|---------------------------------------------------------------------------|
|---------------------------------------------------------------------------|

Guitar 1:
|---------------------------------------------------------------------------|
|---------------------------------------------------------------------------|
|---------------------------------------------------------------------------|
|-12-1212-10-8-7-77------5-55-7-8-0-0-0-0-0-0-------------------------------| 
|-------------------10-8----------------------------------------------------|
|---------------------------------------------------------------------------|

Guitar 1 & 2:
|---------------------------------------------------------------------------|
|---------------------------------------------------------------------------|
|-----666777-99101099-777---------------------------------------------------|
|-777-----------------------------------------------------------------------| 
|---------------------------------------------------------------------------|
|---------------------------------------------------------------------------|

Repeat intro

Guitar 1:
|---------------------------------------------------------------------------|
|---------------------------------------------------------------------------|
|-10-9h10-7--10-9h10-7--10-9h10-7--10-9h10-7--------------------------------|
|---------------------------------------------------------------------------| 
|---------------------------------------------------------------------------|
|---------------------------------------------------------------------------|
Guitar 2: After first repetition
|---------------------------------------------------------------------------|
|-10-8h10-6--10-8h10-6--10-8h10-6--10-8h10-6--------------------------------|
|---------------------------------------------------------------------------|
|---------------------------------------------------------------------------| 
|---------------------------------------------------------------------------|
|---------------------------------------------------------------------------|

Guitar 1 & 2:
|---------------------------------------------------------------------------|
|-15------15-13-11------11-10-8------8-10-----------------------------------|
|----5555----------5555---------5555------5-5555----------------------------|
|---------------------------------------------------------------------------|
|---------------------------------------------------------------------------|
|---------------------------------------------------------------------------|
     ****          ****         ****        ****


|---------------------------------------------------------------------------|
|---------------------------------------------------//14--------------------|
|-----666777-99101099-777--666-777-999-101012121010-------------------------|
|-777-----------------------------------------------------------------------| 
|---------------------------------------------------------------------------|
|---------------------------------------------------------------------------|

BREAKDOWN! (all open and palm muted)




The rest of the song is just comprised of these riffs, some with tremelo picking.

email me if you find any mistakes.

Merry Christmas Everyone!


| /  slide up
| \  slide down
| h  hammer-on
| p  pull-off
| ~  vibrato
| +  harmonic
| x  Mute note
===============================================================================
comments
print report bad tab
1 comment total.
+1 reply
bamalam89 12 wrote on December 12 2007, 03:15 am

I'm having trouble figuring out the end
anyway your could post it???

I want to post or [tab]
guest
You may want to rate the tab now too:
select rating
Please do not post tabs as comments. Select "correction" instead!