Oops, an error
Loading. Please wait.

Carpe Diem Bass Tab

version 1
version 1

Whole song

Interactive

1,086 views 1 this week
no commentswrite comment
1 2 3 4 5
3 more votes to show rating
add to favorites
launch autoscroll
font size
0
reset
guitar tuner
Autoscroll
slow
fast
+/-
esc
set tempo
stop
Help us to improve Ultimate-Guitar.com Take our survey!
×
Difficulty
Tuning
intermediate
C G C F A D
Bass
Drop C (CGCF)

Legend
L - tied note
x - dead note
h - hammer on/pull off
b - bend
s - slide
~ - vibrato
g - ghost note
> - accentuated note
t - trill
M - palm mute
. - staccato
P - popping (bass)
S - slapping (bass)
+ - tapping
W - wide vibrato
< - fade in
w - whammy bar
= - tremolo picking
v - brush up
^ - brush down
V - pick stroke up
n - pick stroke down


F |-------|----|----|----|----|----|----|----|----|----|----|----|
C |-------|----|----|----|----|----|----|----|----|----|----|----|
G |-------|----|----|----|----|----|----|----|----|----|----|----|
C |-------|----|----|----|----|----|----|----|----|----|----|----|


----------------------------------------------------|
----------------------------------------------------|
----------------------------------------------------|
--5--5--5--5--5--5--5--5--5--5--5--5--5--5--5--5----|


----------------------------------------------------|
----------------------------------------------------|
--6--6--6--6--6--6--6--6--6--6--6--6--6--6--6--6----|
----------------------------------------------------|


----------------------------------------------------|
----------------------------------------------------|
--3--3--3--3--3--3--3--3--3--3--3--3--3--3--3--3----|
----------------------------------------------------|


----------------------------------------------------|
----------------------------------------------------|
----------------------------------------------------|
--5--5--5--5--5--5--5--5--5--5--5--5--5--5--5--5----|


----------------------------------------------------|
----------------------------------------------------|
----------------------------------------------------|
--5--5--5--5--5--5--5--5--5--5--5--5--5--5--5--5----|


----------------------------------------------------|
----------------------------------------------------|
--6--6--6--6--6--6--6--6--6--6--6--6--6--6--6--6----|
----------------------------------------------------|


----------------------------------------------------|
----------------------------------------------------|
--3--3--3--3--3--3--3--3--3--3--3--3--3--3--3--3----|
----------------------------------------------------|


----------------------------------------------------|
----------------------------------------------------|
----------------------------------------------------|
--5--5--5--5--5--5--5--5--5--5--5--5--5--5--5--5----|


----------------------------------------------------|
----------------------------------------------------|
----------------------------------------------------|
--5--5--5--5--5--5--5--5--5--5--5--5--5--3--3--3----|


----------------------------------------------------|
----------------------------------------------------|
----------------------------------------------------|
--3s-5--5--5--5--5--5--5--5--5--5--5--5--3--3--3----|


----------------------------------------------------|
----------------------------------------------------|
--6--6--6--6--6--6--6--6--6--6--6--6--6--6--6--6----|
----------------------------------------------------|


----------------------------------------------------|
----------------------------------------------------|
--3--3--3--3--3--3--3--3--3--3--3--3--3--3--3--3----|
----------------------------------------------------|


----------------------------------------------------|
----------------------------------------------------|
----------------------------------------------------|
--5--5--5--5--5--5--5--5--5--5--5--5--5--3--3--3----|


----------------------------------------------------|
----------------------------------------------------|
----------------------------------------------------|
--3s-5--5--5--5--5--5--5--5--5--5--5--5--3--3--3----|


----------------------------------------------------|
----------------------------------------------------|
--6--6--6--6--6--6--6--6--6--6--6--6--6--6--6--6----|
----------------------------------------------------|


----------------------------------------------------|
----------------------------------------------------|
--3--3--3--3--3--3--3--3----------------------------|
--------------------------3--3--3--3--3--3--3--3----|


----------------------------------------------------|
----------------------------------------------------|
----------------------------------------------------|
--5--5--5--5--5--5--5--5--5--5--5--5--5--3--3--3----|


----------------------------------------------------|
----------------------------------------------------|
----------------------------------------------------|
--3s-5--5--5--5--5--5--5--5--5--5--5--5--3--3--3----|


----------------------------------------------------|
----------------------------------------------------|
--6--6--6--6--6--6--6--6--6--6--6--6--6--6--6--6----|
----------------------------------------------------|


----------------------------------------------------|
----------------------------------------------------|
--3--3--3--3--3--3--3--3--3--3--3--3--3--3--3--3----|
----------------------------------------------------|


----------------------------------------------------|
----------------------------------------------------|
----------------------------------------------------|
--5--5--5--5--5--5--5--5--5--5--5--5--5--3--3--3----|


----------------------------------------------------|
----------------------------------------------------|
----------------------------------------------------|
--3s-5--5--5--5--5--5--5--5--5--5--5--5--3--3--3----|


----------------------------------------------------|
----------------------------------------------------|
--6--6--6--6--6--6--6--6--6--6--6--6--6--6--6--6----|
----------------------------------------------------|


----------------------------------------------------|
----------------------------------------------------|
--3--3--3--3--3--3--3--3----------------------------|
--------------------------3--3--3--3--3--3--3--3----|


----------------------------------------------------|
--13s13-13-13-13------------------------------------|
----------------------------------------------------|
----------------------------------------------------|


--------------12------------------------------------|
--------13-12---------------------------------------|
--10-13---------------------------------------------|
----------------------------------------------------|


----------------------------------------------------|
----------------------------------------------------|
----------------------------------------------------|
--5--5-----5--5--5--5--5-----5--5--5--5--5--5--5----|


----------------------------------------------------|
----------------------------------------------------|
----------------------------------------------------|
--5--5-----5--5--5--5--5-----5--5--5--5--5--5--5----|


----------------------------------------------------|
--------13-12-12------------------------------------|
--10-13---------------------------------------------|
----------------------------------------------------|


--------------12------------------------------------|
--------13-12---------------------------------------|
--10-13---------------------------------------------|
----------------------------------------------------|


----------------------------------------------------|
----------------------------------------------------|
----------------------------------------------------|
--5--5--5--------5-----5-----5--5--5--------5-------|


----------------------------------------------------|
----------------------------------------------------|
----------------------------------------------------|
--5--5--5--------5-----5-----5--5--5----------------|


----------------------------------------------------|
----------------------------------------------------|
----------------------------------------------------|
--5--5--5--------5-----5-----5--5--5--------5-------|


----------------------------------------------------|
----------------------------------------------------|
----------------------------------------------------|
--5--5--5--------5-----5-----5--5--5----------------|


----------------------------------------------------|
----------------------------------------------------|
--6--6--6--------6-----6-----6--6--6--------6-------|
----------------------------------------------------|


----------------------------------------------------|
----------------------------------------------------|
--3--3--3--------3-----3-----3--3--3--------3-------|
----------------------------------------------------|


----------------------------------------------------|
----------------------------------------------------|
----------------------------------------------------|
--5--5--5--------5-----5-----5--5--5--------5-------|


----------------------------------------------------|
----------------------------------------------------|
----------------------------------------------------|
--5--5--5--------5-----5-----5--5--5----------------|


----------------------------------------------------|
----------------------------------------------------|
----------------------------------------------------|
--5--5--5--------5-----5-----5--5--5--------5-------|


----------------------------------------------------|
----------------------------------------------------|
----------------------------------------------------|
--5--5--5--------5-----5-----5--5--5----------------|


----------------------------------------------------|
----------------------------------------------------|
--6--6--6--------6-----6-----6--6--6--------6-------|
----------------------------------------------------|


----------------------------------------------------|
----------------------------------------------------|
--3--3--3--------3-----3-----3--3--3----------------|
----------------------------------------------------|


----------------------------------------------------|
----------------------------------------------------|
----------------------------------------------------|
--5--5--5--------5-----5-----5--5--5--------5-------|


----------------------------------------------------|
----------------------------------------------------|
----------------------------------------------------|
--5--5--5--------5-----5-----5--5--5----------------|


----------------------------------------------------|
----------------------------------------------------|
----------------------------------------------------|
--5--5--5--------5-----5-----5--5--5--------5-------|


----------------------------------------------------|
----------------------------------------------------|
----------------------------------------------------|
--5--5--5--------5-----5-----5--5--5----------------|


----------------------------------------------------|
----------------------------------------------------|
----------------------------------------------------|
--5--5--5--------5-----5-----5--5--5--------5-------|


----------------------------------------------------|
----------------------------------------------------|
----------------------------------------------------|
--5--5--5--------5-----5-----5--5--5----------------|


----------------------------------------------------|
----------------------------------------------------|
--6--6--6--------6-----6-----6--6--6--------6-------|
----------------------------------------------------|


----------------------------------------------------|
----------------------------------------------------|
--3--3--3--------3-----3-----3--3--3----------------|
----------------------------------------------------|


----------------------------------------------------|
----------------------------------------------------|
----------------------------------------------------|
--5--5--5--------5-----5-----5--5--5--------5-------|


----------------------------------------------------|
----------------------------------------------------|
----------------------------------------------------|
--5--5--5--------5-----5-----5--5--5----------------|


----------------------------------------------------|
----------------------------------------------------|
--6--6--6--6--6--6--6--6--6--6--6--6--6--6--6--6----|
----------------------------------------------------|


----------------------------------------------------|
----------------------------------------------------|
----------------------------------------------------|
--5--5--5--5--5--5--5--5--5--5--5--5--5--5--5--5----|


----------------------------------------------------|
----------------------------------------------------|
--6--6--6--6--6--6--6--6--6--6--6--6--6--6--6--6----|
----------------------------------------------------|


----------------------------------------------------|
----------------------------------------------------|
----------------------------------------------------|
--5--5--5--5--5--5--5--5--5--5--5--5--5--5--5--5----|


----------------------------------------------------|
----------------------------------------------------|
--6--6--6--6--6--6--6--6--6--6--6--6--6--6--6--6----|
----------------------------------------------------|


----------------------------------------------------|
----------------------------------------------------|
----------------------------------------------------|
--5--5--5--5--5--5--5--5--5--5--5--5--5--5--5--5----|


----------------------------------------------------|
----------------------------------------------------|
--6--6--6--6--6--6--6--6--6--6--6--6--6--6--6--6----|
----------------------------------------------------|


----------------------------------------------------|
----------------------------------------------------|
----------------------------------------------------|
--5--5--5--5--5--5--5--5--5--5--5--5--5--5--5--5----|


----------------------------------------------------|
----------------------------------------------------|
----------------------------------------------------|
--5--5--5--5--5--5--5--5--5--5--5--5--5--3--3--3----|


----------------------------------------------------|
----------------------------------------------------|
----------------------------------------------------|
--3s-5--5--5--5--5--5--5--5--5--5--5--5--3--3--3----|


----------------------------------------------------|
----------------------------------------------------|
--6--6--6--6--6--6--6--6--6--6--6--6--6--6--6--6----|
----------------------------------------------------|


----------------------------------------------------|
----------------------------------------------------|
--3--3--3--3--3--3--3--3--3--3--3--3--3--3--3--3----|
----------------------------------------------------|


----------------------------------------------------|
----------------------------------------------------|
----------------------------------------------------|
--5--5--5--5--5--5--5--5--5--5--5--5--5--3--3--3----|


----------------------------------------------------|
----------------------------------------------------|
----------------------------------------------------|
--3s-5--5--5--5--5--5--5--5--5--5--5--5--3--3--3----|


----------------------------------------------------|
----------------------------------------------------|
--6--6--6--6--6--6--6--6--6--6--6--6--6--6--6--6----|
----------------------------------------------------|


----------------------------------------------------|
----------------------------------------------------|
--3--3--3--3--3--3--3--3----------------------------|
--------------------------3--3--3--3--3--3--3--3----|


----------------------------------------------------|
----------------------------------------------------|
----------------------------------------------------|
--5--5--5--5--5--5--5--5--5--5--5--5--5--3--3--3----|


----------------------------------------------------|
----------------------------------------------------|
----------------------------------------------------|
--3s-5--5--5--5--5--5--5--5--5--5--5--5--3--3--3----|


----------------------------------------------------|
----------------------------------------------------|
--6--6--6--6--6--6--6--6--6--6--6--6--6--6--6--6----|
----------------------------------------------------|


----------------------------------------------------|
----------------------------------------------------|
--3--3--3--3--3--3--3--3--3--3--3--3--3--3--3--3----|
----------------------------------------------------|


----------------------------------------------------|
----------------------------------------------------|
----------------------------------------------------|
--5--5--5--5--5--5--5--5--5--5--5--5--5--3--3--3----|


----------------------------------------------------|
----------------------------------------------------|
----------------------------------------------------|
--3s-5--5--5--5--5--5--5--5--5--5--5--5--3--3--3----|


----------------------------------------------------|
----------------------------------------------------|
--6--6--6--6--6--6--6--6--6--6--6--6--6--6--6--6----|
----------------------------------------------------|


----------------------------------------------------|
----------------------------------------------------|
--3--3--3--3--3--3--3--3----------------------------|
--------------------------3--3--3--3--3--3--3--3----|


----------------------------------------------------|
----------------------------------------------------|
----------------------------------------------------|
--5--5-----5--5--5--5--5-----5--5--3--3--5--5--5----|


----------------------------------------------------|
----------------------------------------------------|
----------------------------------------------------|
--5--5-----5--5--5--5--5-----5--5--3--3--5--5--5----|


----------------------------------------------------|
----------------------------------------------------|
--6--6-----6--6--6--6--6-----6--6--6--6--6--6--6----|
----------------------------------------------------|


----------------------------------------------------|
----------------------------------------------------|
--3--3-----3--3--3--3--3----------------------------|
-----------------------------3--3--3--3--3--3--3----|


----------------------------------------------------|
----------------------------------------------------|
----------------------------------------------------|
--5--5-----5--5--5--5--5-----5--5--5--5--5--5--5----|


----------------------------------------------------|
----------------------------------------------------|
----------------------------------------------------|
--5--5-----5--5--5--5--5-----5--5--5--5--5--5--5----|


-------------------------------------------------||
-------------------------------------------------||
-------------------------------------------------||
--5----------------------------------------------||
Suggest correction
Give kudos to tab author, rate the tab!
1 2 3 4 5
comments
print report bad tab
guest
You may want to rate the tab now too:
select rating
Wanna post a correction for this tab? Suggest correction