Oops, an error
Loading. Please wait.

Chasing The Dragon Tab

version 1
version 1

Intro

Whole song

Interactive

892 views 1 this week
2 commentsread comments
1 2 3 4 5
please rate
add to favorites
launch autoscroll
font size
0
reset
how to read this tab
guitar tuner
Autoscroll
slow
fast
+/-
esc
set tempo
stop
Help us to improve Ultimate-Guitar.com Take our survey!
×
----------------------------------------------------------|
----------------------------------------------------------|
------7---6---7p4--------------7---6------------6h7p6h7---|
-4--------------------7p4-------------------6h7-----------|
-4------------------7-------------------6h7---------------|
-444---4---4-----4-------444----4----4--------------------|
  ..   .   .     .       ...    .    .

-------------------------------------------------9h10p9h10p9h10-12-10-------|
--------10-------------------------------10h11------------------------12-10-|
-----11--------------9h11--------------11-----------------------------------|
---------------10h11--------------------------------------------------------|
--------------------------5h7h9---------------------------------------------|
-000-------00---------------------000----------0----------------------------|
 ...       ..                     ...


-------------------------------|
-------------------------------|
-------------------------------|
-4---4---4---4---0---0---0---0-|
-4---4---4---4---0---0---0---0-|
-44444444444440000000000000000-
  ... ... ... ... ... ... ...
Suggest correction
Give kudos to tab author, rate the tab!
1 2 3 4 5
comments
print report bad tab
2 comments total.
-2 reply
off_the_heezay 87 wrote on January 31 2009, 09:35 pm

----------------------------------------------------------|
----------------------------------------------------------|
------7---6---7p4--------------7---6------------6h7p6-----|
-4--------------------7p4-------------------6h7-------7---|
-4------------------7-------------------6h7---------------|
-444---4---4-----4-------444----4----4--------------------|
.. . . . ... . .

+1 reply
cslink 151 wrote on February 25 2009, 12:32 pm

sorry dog, this tab just doesn't quite make the cut for a high ranking. its a good job, but the other tab def sounds better

guest
You may want to rate the tab now too:
select rating
Wanna post a correction for this tab? Suggest correction