Oops, an error
Loading. Please wait.

Cutting The Ties tab

version 2
version 2

Whole song

Interactive

4,434 views 3 this week
no commentswrite comment
1 2 3 4 5
x 4
add to favorites
×
Save as Personal and add changes to this tab that will be seen only by you. Learn more ›
×
You can save this tab as Personal to edit and correct it or add notes. All changes will be seen only by you. Learn more »
launch autoscroll
font size
0
reset
how to read this tab
guitar tuner
edit
Autoscroll
slow
fast
+/-
esc
set tempo
stop
-----------------------------------------------------------------------------
                    August Burns Red - Cutting The Ties
-----------------------------------------------------------------------------
Tabbed by:Metalcoreking
Email:Matthessell@live.com

Tuning:CGCFAD

INTRO
D|--------------------------------------------------------------------------|
A|--------------11p10-------------------------------------------------------|
F|-12p10---10-----------10---12---14---12-----------------------------------|
C|-------0----0-------0----0----0----0----0---------------------------------|
G|--------------------------------------------------------------------------|
C|--------------------------------------------------------------------------|
 |       x    x       x    x    x    x    x                                 |
D|--------------------------------------------------------------------------|
A|--------------11p10--------15---10----------------------------------------|
F|-12p10---10-----------10-------------10-----------------------------------|
C|-------0----0-------0----0----0----0----0---------------------------------|
G|--------------------------------------------------------------------------|
C|--------------------------------------------------------------------------|
 |       x    x       x    x    x    x    x                                 |
D|--------------------------------------------------------------------------|
A|--------------11p10-------------------------------------------------------|
F|-12p10---10-----------10---12---14---12-----------------------------------|
C|-------0----0-------0----0----0----0----0---------------------------------|
G|--------------------------------------------------------------------------|
C|--------------------------------------------------------------------------|
 |       x    x       x    x    x    x    x                                 |
D|----------------------------------------------------------------------(x4)|
A|-17p15--------------------------17---15-----------------------------------|
F|---------14---15p14---14---15---------------------------------------------|
C|-------0----0-------0----0----0----0----0---------------------------------|
G|--------------------------------------------------------------------------|
C|--------------------------------------------------------------------------|
         x    x       x    x    x    x    x

CHORUS
D|--------------------------------------------------------------------------|
A|--------------------------------------------------------------------------|
F|--------------------------------------------------------------------------|
C|-0--------7-------7-------0-------7---------------------------------------|
G|-0--8-8-8-7-7-7-7-7-0-0-0-0-8-8-8-7-7-7-7---------------------------------|
C|-0--8-8-8---7-7-7---0-0-0-0-8-8-8---7-7-7---------------------------------|

D|-10-------------------------------10-----------------------12-------------|
A|----10-----------10-----------10-----10-----------10----------14----------|
F|-----------10-12-----12----12--------------10-12-----12-------------------|
C|-------12---------------14--------------12--------------14----------------|
G|--------------------------------------------------------------------------|
C|--------------------------------------------------------------------------|
 |                                                                          |
D|-10-----------------------------------------------------------------------|
A|----10-----10-----------------10--------10--11-10-------------------------|
F|--------------10-----10----10--------10-----------10----------------------|
C|-------12--------12-----10--------11--------------------------------------|
G|--------------------------------------------------------------------------|
C|--------------------------------------------------------------------------|

VERSE
D|----------------------------------------------------------------------(x4)|
A|--------------------------------------------------------------------------|
F|--------------------------------------------------------------------------|
C|---------7-7-----8-8-7-7-------------------7-7----------------------------|
G|-5-5-8-8-----8-8---------8-8-----------8-8-----8-8-----8-8-10-10-8-8------|
C|-----------------------------10-10-8-8-------------7-7--------------------|
 |                                                                          |
D|----------------------------------------------------------------------(x2)|
A|--------------------------------------------------------------------------|
F|--------------------------------------------------------------------------|
C|--------------------------------------------------------------------------|
G|-----5-5-----5-5-----8-8-----7-7-----5-5-----5-5-----5-5-----5-5----------|
C|-0-0-----0-0-----0-0-----0-0-----8-8-----8-8-----7-7-----7-7--------------|

D|-----------------------------------------------------------------8--------|
A|-------------------------6-----6-10-6---6-----6-10-8-5---5-8-5-8----------|
F|-----------------7-9-7-9---9-7--------9---7-9----------5------------------|
C|-----8-8-7-7--------------------------------------------------------------|
G|-5-5---------5-5----------------------------------------------------------|
C|--------------------------------------------------------------------------|
 |                                                                          |
D|--------------------------------------------------------------------------|
A|-------------------------6-----6-10-6---6-----6-10-8----5\----------------|
F|-----------------7-9-7-9---9-7--------9---7-9-----------------------------|
C|-----8-8-7-7--------------------------------------------------------------|
G|-5-5---------5-5----------------------------------------------------------|
C|--------------------------------------------------------------------------|

INTERLUDE
D|----------------------------------------------------------------------(x4)|
A|-------10----11-10------------10---------8--------------------------------|
F|----10----10-------10------10----10---10---10-----------------------------|
C|-12-------------------10-8----------7-------------------------------------|
G|--------------------------------------------------------------------------|
C|--------------------------------------------------------------------------|

D|--------------------------------------------------------------------------|
A|--------------------------------------------------------------------------|
F|--------------------------------------------------------------------------|
C|-7----------/10-10-10-------------/7-7-7----------------------------------|
G|-7--5-5-5-0-----------10\-5-5-5-5--------5\-------------------------------|
C|-7--7-7-7-0---------------8-8-8-------------------------------------------|

D|-------------------------------------12/13-13-13----------------------(x3)|
A|-10----10----11----13----10----10-----------------------------------------|
F|----10----10----10----10----10----10--------------------------------------|
C|--------------------------------------------------------------------------|
G|--------------------------------------------------------------------------|
C|--------------------------------------------------------------------------|
 |                                                                          |
D|--------------------------------------------------------------------------|
A|-10----10----11----13----10-10--------------------------------------------|
F|----10----10----10----10-10-10--------------------------------------------|
C|--------------------------------7-----------------------------------------|
G|--------------------------------7-----------------------------------------|
C|--------------------------------7-----------------------------------------|

BREAKDOWN
D|----------------------------------------------------------------------(x4)|
A|--------------------------------------------------------------------------|
F|--------------------------------------------------------------------------|
C|-----7-7---------7-7-----------8-8----7-7---------------------------------|
G|---------8-8---------8-8-10-10------------8-8-------------7-3-------------|
C|-0-0---------0-0-------------------0-0--------0-0-0-0-0-0-7-3-------------|
                                                x x x x x x
D|----------------------------------------------------------------------(x4)|
A|--------------------------------------------------------------------------|
F|--------------------------------------------------------------------------|
C|--------------------------------------------------------------------------|
G|-0--0-0-0-0----0000----0-0--------------------------------7-3-------------|
C|-0--0-0-0-0----0000----0-0--------------------0-0-0-0-0-0-7-3-------------|
                                                x x x x x x
CHORUS

BREAKDOWN
D|----------------------------------------------------------------------(x4)|
A|--------------------------------------------------------------------------|
F|--------------------------------------------------------------------------|
C|-7---------------7------------7---------------7---------------------------|
G|-5-00000--0000-0-5-0000-0-000-5-00000--0000-0-5-0000-0-000----------------|
C|-0-00000--0000-0-0-0000-0-000-0-00000--0000-0-0-0000-0-000----------------|
     xxxxx  xxxx x   xxxx x xxx   xxxxx  xxxx x   xxxx x xxx

SOLO
D|--------------------------------------------------------------------------|
A|--------------12p10-------------10----------------------------------------|
F|-12p11---11-----------11---12--------11-----------------------------------|
C|-------0----0-------0----0----0----0--------------------------------------|
G|--------------------------------------------------------------------------|
C|--------------------------------------------------------------------------|
 |                                                                          |
D|---------------------------10---------------------------------------------|
A|--------------12p10-------------10----------------------------------------|
F|-12p11---11-----------11-------------11-----------------------------------|
C|-------0----0-------0----0----0----0--------------------------------------|
G|--------------------------------------------------------------------------|
C|--------------------------------------------------------------------------|
 |                                                                          |
D|----------------------------------------(10)4th-Time-Ending)--------------|
A|--------------12p10-------------10----------------------------------------|
F|-12p11---11-----------11---12--------11-----------------------------------|
C|-------0----0-------0----0----0----0--------------------------------------|
G|--------------------------------------------------------------------------|
C|--------------------------------------------------------------------------|
 |                                                                          |
D|-14p10--------------------------14---10-------------------------------(x4)|
A|---------10---12p10---10---12---------------------------------------------|
F|--------------------------------------------------------------------------|
C|-------0----0-------0----0----0----0--------------------------------------|
G|--------------------------------------------------------------------------|
C|--------------------------------------------------------------------------|

************************************

| /   slide up
| \   slide down
| h   hammer-on
| p   pull-off
| ~   vibrato
| +   harmonic
| x   Mute note
| b   Bend
| pb  Pre-bend
| br  Bend release
| pbr Pre-bend release
| brb Bend release bend

************************************
Suggest correction
Creating personal tab
Creating personal tab
You can edit any tab online and save it as your Personal.

You can edit, replace or remove any tab part or add personal notes – all changes will be seen only by you.

Personal tabs can be accessed anytime from any device, even offline.
Learn more »
comments
print report bad tab
guest
You may want to rate the tab now too:
select rating
Wanna post a correction for this tab? Suggest correction