Oops, an error
Loading. Please wait.

Echoes guitar pro

version 1
version 1

Whole song

Interactive

3,903 views 3 this week
4 commentsread comments
1 2 3 4 5
x 10
add to favorites
guitar tuner
Autoscroll
slow
fast
+/-
esc
set tempo
stop
"Echoes"
demo version
Play now

or get full version for Free

×
Get full version now!
Learn and play this song
in Tab Pro
Try for free

or get $10 off Welcome Bonus

Get welcome bonus
Get access to Tab Pro version of “Echoes”!
Tab Pro is a premium guitar tab service, available on PC, Mac, iOS and Android
TRY FOR FREE
Your download will start in 7 seconds
×
Like this song? We have more! Follow us on Facebook for daily tips, lessons and other guitar-related content.
To download “Echoes” Guitar Pro tab click button below
Please note that you must have Guitar Pro software installed on your
computer in order to view this file.
Suggest correction
comments
report bad tab
4 comments total. Showing first comments.
0 reply
clm62800 3,229 Jul 12, 2013 06:03 AM

Good job ! 5*

0 reply
Djee009 126 Jul 30, 2013 05:17 AM

Hey guys, the lead guitar during the first breakdown at 1:14 was not totally accurate. This sounds more like it.

Enjoy!

E E E E E E E E E E E E E E
--------------------------------------------|
--------------------------------------------|
-----------------------------7--------------|
--7--0--8--5--0--8--5--7--0-----8--5--7--0--|
--------------------------------------------|
--------------------------------------------|

E E E E E E E E E E E E E E
----------------------------------------------|
----------------------------------------------|
---------------------------------7--9--10-----|
--7--0--8--5--0--8--5--7--0--11------------8--|
----------------------------------------------|
----------------------------------------------|

0 reply
Djee009 126 Jul 30, 2013 05:19 AM

Oh yeah, play this riff two times

guest
You may want to rate the tab now too:
select rating