Oops, an error
Loading. Please wait.

Eleventh Hour tab

version 2
version 2

Whole song

Interactive

3,878 views 3 this week
no commentswrite comment
1 2 3 4 5
2 more votes to show rating
add to favorites
×
Save as Personal and add changes to this tab that will be seen only by you. Learn more ›
×
You can save this tab as Personal to edit and correct it or add notes. All changes will be seen only by you. Learn more »
launch autoscroll
font size
0
reset
how to read this tab
guitar tuner
edit
Autoscroll
slow
fast
+/-
esc
set tempo
stop
All of my August Burns Red tabs are %100 accurate because I got a rough copy from 
their guitarist JB.
                                  
D  :----------------|----------------|
A  :----------------|----------------|
F  :----------------|----------------|
C  :----------------|----------------|
G  :----------------|----------------|
C  :----------------|----------------|
                                     
D  :----------------|----------------|
A  :----------------|----------------|
F  :----------------|----------------|
C  :----------------|----------------|
G  :----------------|----------------|
C  :----------------|----------------|

============================================================================
                                                            
D  :------------------|------------------|------------------|
A  :------------------|------------------|------------------|
F  :------------------|------------------|------------------|
C  :------------------|------------------|------------------|
G  :0---7-8-0-0---0---|1-3-0-0---0---3---|0---4-5-0-0---0---|
C  :0---------0---0---|------0---0-------|0---------0---0---|
    *         *   *          *   *        *         *   *   
D  :------------------|------------------|------------------|
A  :------------------|------------------|------------------|
F  :------------------|------------------|------------------|
C  :------------------|------------------|------------------|
G  :0---7-8-0-0---0---|1-3-0-0---0---3---|0---4-5-0-0---0---|
C  :0---------0---0---|------0---0-------|0---------0---0---|
    *         *   *          *   *        *         *   *
============================================================================
                                                                       
D  :-------------------|--------------------|--------------------------|
A  :-------------------|--------------------|--------------------------|
F  :7-10-7---------9---|--------------------|--------------------------|
C  :-------8-0-7-8---8-|--------------------|--------------------------|
G  :-------------------|0---10-12-0-0---0---|8-10-0-0---10-12-0-8-10-0-|
C  :-------------------|0-----------0---0---|-------0------------------|
                        *           *   *           *                  
D  :-------------------|--------------------|--------------------------|
A  :-------------------|--------------------|--------------------------|
F  :7-10-7---------9---|--------------------|--------------------------|
C  :-------8-0-7-8---8-|--------------------|--------------------------|
G  :-------------------|0---10-12-0-0---0---|8-10-0-0---10-12-0-8-10-0-|
C  :-------------------|0-----------0---0---|-------0------------------|
                        *           *   *           *
============================================================================
                                                            
D  :------------------|------------------|------------------|
A  :------------------|------------------|------------------|
F  :------------------|------------------|------------------|
C  :------------------|------------------|------------------|
G  :0---7-8-0-0---0---|1-3-0-0---0---3---|0---4-5-0-0---0---|
C  :0---------0---0---|------0---0-------|0---------0---0---|
    *         *   *          *   *        *         *   *   
D  :------------------|------------------|------------------|
A  :------------------|------------------|------------------|
F  :------------------|------------------|------------------|
C  :------------------|------------------|------------------|
G  :0---7-8-0-0---0---|1-3-0-0---0---3---|0---4-5-0-0---0---|
C  :0---------0---0---|------0---0-------|0---------0---0---|
    *         *   *          *   *        *         *   *
============================================================================
                                                                       
D  :-------------------|--------------------|--------------------------|
A  :-------------------|--------------------|--------------------------|
F  :7-10-7---------9---|--------------------|--------------------------|
C  :-------8-0-7-8---8-|--------------------|--------------------------|
G  :-------------------|0---10-12-0-0---0---|8-10-0-0---10-12-0-8-10-0-|
C  :-------------------|0-----------0---0---|-------0------------------|
                        *           *   *           *                  
D  :-------------------|--------------------|--------------------------|
A  :-------------------|--------------------|--------------------------|
F  :7-10-7---------9---|--------------------|--------------------------|
C  :-------8-0-7-8---8-|--------------------|--------------------------|
G  :-------------------|0---10-12-0-0---0---|8-10-0-0---10-12-0-8-10-0-|
C  :-------------------|0-----------0---0---|-------0------------------|
                        *           *   *           *
============================================================================
                                                          
D  :----------------|------------------|------------------|
A  :----------------|------------------|------------------|
F  :----------------|------------------|------------------|
C  :----------------|------------------|------------------|
G  :0---------------|0---7-8-0-0---0---|1-3-0-0---0-------|
C  :0-*-------------|0---------0---0---|------0---0---3---|
    *                *         *   *          *   *       
D  :----------------|------------------|------------------|
A  :----------------|------------------|------------------|
F  :----------------|------------------|------------------|
C  :----------------|------------------|------------------|
G  :0---------------|0---7-8-0-0---0---|1-3-0-0---0-------|
C  :0-*-------------|0---------0---0---|------0---0---3---|
    *                *         *   *          *   *
============================================================================
                                                               
D  :------------------|-------------------|--------------------|
A  :------------------|-------------------|--------------------|
F  :------------------|7-10-7---------9---|--------------------|
C  :------------------|-------8-0-7-8---8-|--------------------|
G  :0---4-5-0-0---0---|-------------------|0---10-12-0-0---0---|
C  :0---------0---0---|-------------------|0-----------0---0---|
    *         *   *                        *           *   *   
D  :------------------|-------------------|--------------------|
A  :------------------|-------------------|--------------------|
F  :------------------|7-10-7---------9---|--------------------|
C  :------------------|-------8-0-7-8---8-|--------------------|
G  :0---4-5-0-0---0---|-------------------|0---10-12-0-0---0---|
C  :0---------0---0---|-------------------|0-----------0---0---|
    *         *   *                        *           *   *
============================================================================
                                                                    
D  :--------------------------|------------------|------------------|
A  :--------------------------|------------------|------------------|
F  :--------------------------|------------------|------------------|
C  :--------------------------|------------------|------------------|
G  :8-10-0-0---10-12-0-8-10-0-|0---7-8-0-0---0---|1-3-0-0---0-------|
C  :-------0------------------|0---------0---0---|------0---0---3---|
           *                   *         *   *          *   *       
D  :--------------------------|------------------|------------------|
A  :--------------------------|------------------|------------------|
F  :--------------------------|------------------|------------------|
C  :--------------------------|------------------|------------------|
G  :8-10-0-0---10-12-0-8-10-0-|0---7-8-0-0---0---|1-3-0-0---0-------|
C  :-------0------------------|0---------0---0---|------0---0---3---|
           *                   *         *   *          *   *
============================================================================
                                                               
D  :------------------|-------------------|--------------------|
A  :------------------|-------------------|--------------------|
F  :------------------|7-10-7---------9---|--------------------|
C  :------------------|-------8-0-7-8---8-|--------------------|
G  :0---4-5-0-0---0---|-------------------|0---10-12-0-0---0---|
C  :0---------0---0---|-------------------|0-----------0---0---|
    *         *   *                        *           *   *   
D  :------------------|-------------------|--------------------|
A  :------------------|-------------------|--------------------|
F  :------------------|7-10-7---------9---|--------------------|
C  :------------------|-------8-0-7-8---8-|--------------------|
G  :0---4-5-0-0---0---|-------------------|0---10-12-0-0---0---|
C  :0---------0---0---|-------------------|0-----------0---0---|
    *         *   *                        *           *   *
============================================================================
                                
D  :----------------------------|
A  :----------------------------|
F  :----------------------------|
C  :----------------------------|
G  :12-13-0-0---13-15-0-15-17-0-|
C  :--------0-------------------|
            *                   
D  :----------------------------|
A  :----------------------------|
F  :----------------------------|
C  :----------------------------|
G  :12-13-0-0---13-15-0-15-17-0-|
C  :--------0-------------------|
            *
============================================================================
                     PICK   SLIDE                              
D  :----------------|-------------------------------|----------------|
A  :----------------|-------------------------------|----------------|
F  :----------------|-------------------------------|----------------|
C  :0---------------|-------------------------------|----------------|
G  :0---------------|24-----------------------------|0-0---0---0-0---|
C  :0---------------|24-\-\-\-\-\-\-\-\-\-\-\-\-\-\-|0-0-*-0-*-0-0-*-|
                     PICK   SLIDE                    * *   *   * *   
D  :----------------|-------------------------------|----------------|
A  :----------------|-------------------------------|----------------|
F  :----------------|-------------------------------|----------------|
C  :0---------------|-------------------------------|----------------|
G  :0---------------|24-----------------------------|0-0---0---0-0---|
C  :0---------------|24-\-\-\-\-\-\-\-\-\-\-\-\-\-\-|0-0-*-0-*-0-0-*-|
                                                     * *   *   * *
============================================================================
                                                      
D  :----------------|----------------|----------------|
A  :----------------|----------------|----------------|
F  :----------------|----------------|----------------|
C  :----------------|----------------|----------------|
G  :0-0-------------|--0-0---0---0---|0---------0-----|
C  :0-0-*-----------|--0-0-*-0-*-0-*-|0-*-------0-*---|
    * *                * *   *   *    *         *             
D  :----------------|----------------|----------------|
A  :----------------|----------------|----------------|
F  :----------------|----------------|----------------|
C  :----------------|----------------|----------------|
G  :0-0-------------|--0-0---0---0---|0---------0-----|
C  :0-0-*-----------|--0-0-*-0-*-0-*-|0-*-------0-*---|
    * *                * *   *   *    *         *
============================================================================

                                                                        
D  :----------------|-----------------|----------------|----------------|
A  :----------------|-----------------|----------------|----------------|
F  :----------------|----7-10-9-------|----------------|--------6-*-----|
C  :----7---7-----6-|-----------8-7---|----------------|----------------|
G  :----------------|---------------8-|5-----4---1---0-|--8-7-8---------|
C  :0-0---0---0-0---|0-0--------------|--0-0---0---0---|0---------------|
    * *   *   * *    * *                 * *   *   *    *              
D  :----------------|-----------------|----------------|----------------|
A  :----------------|-----------------|----------------|----------------|
F  :----------------|-----------------|----------------|----------------|
C  :----------------|-----------------|----------------|----------------|
G  :0-0---0---0-0---|0-0--------------|--0-0---0---0---|0---------------|
C  :0-0-*-0-*-0-0-*-|0-0-*------------|--0-0-*-0-*-0-*-|0-*-------------|
    * *   *   * *    * *                 * *   *   *    *
============================================================================
                                                                        
D  :----------------|-----------------|----------------|----------------|
A  :----------------|-----------------|----------------|----------------|
F  :----------------|----7-10-9-------|----------------|--------6-------|
C  :----7---7-----6-|-----------8-7---|----------------|------------7---|
G  :----------------|---------------8-|5-----4---1---0-|--8-7-8-------4-|
C  :0-0---0---0-0---|0-0--------------|--0-0---0---0---|0---------0-----|
    * *   *   * *    * *                 * *   *   *    *         *      
D  :----------------|-----------------|----------------|----------------|
A  :----------------|-----------------|----------------|----------------|
F  :----------------|----7-10-9-------|----------------|--------6-------|
C  :----7---7-----6-|-----------8-7---|----------------|------------7---|
G  :----------------|---------------8-|5-----4---1---0-|--8-7-8-------4-|
C  :0-0---0---0-0---|0-0--------------|--0-0---0---0---|0---------0-----|
    * *   *   * *    * *                 * *   *   *    *         *
============================================================================
                                                                        
D  :----------------|-----------------|----------------|----------------|
A  :----------------|-----------------|----------------|----------------|
F  :----------------|----7-10-9-------|----------------|--------6-------|
C  :----7---7-----6-|-----------8-7---|----------------|------------7---|
G  :----------------|---------------8-|5-----4---1---0-|--8-7-8-------4-|
C  :0-0---0---0-0---|0-0--------------|--0-0---0---0---|0---------0-----|
    * *   *   * *    * *                 * *   *   *    *         *     
D  :----------------|-----------------|----------------|----------------|
A  :----------------|-----------------|----------------|----------------|
F  :----------------|----7-10-9-------|----------------|--------6-------|
C  :----7---7-----6-|-----------8-7---|----------------|------------7---|
G  :----------------|---------------8-|5-----4---1---0-|--8-7-8-------4-|
C  :0-0---0---0-0---|0-0--------------|--0-0---0---0---|0---------0-----|
    * *   *   * *    * *                 * *   *   *    *         *
============================================================================
                                                                        
D  :----------------|-----------------|----------------|----------------|
A  :----------------|-----------------|----------------|----------------|
F  :----------------|----7-10-9-------|----------------|--------6-------|
C  :----7---7-----6-|-----------8-7---|----------------|------------7---|
G  :----------------|---------------8-|5-----4---1---0-|--8-7-8-------4-|
C  :0-0---0---0-0---|0-0--------------|--0-0---0---0---|0---------0-----|
    * *   *   * *    * *                 * *   *   *    *         *     
D  :----------------|-----------------|----------------|----------------|
A  :----------------|-----------------|----------------|----------------|
F  :----------------|-----------------|----------------|----------------|
C  :0---------------|---------8-------|7---------------|----------------|
G  :0---------------|---------8-------|7---------------|----------------|
C  :0---------------|---------8-------|7---------------|----------------|

============================================================================
                                                                         
D  :----------------|------------------|----------------|----------------|
A  :----------------|------------------|----------------|----------------|
F  :----------------|----7-10--9-------|----------------|--------6-------|
C  :----7---7-----6-|------------8-7---|----------------|------------7---|
G  :----------------|----------------8-|5-----4---1---0-|--8-7-8-------4-|
C  :0-0---0---0-0---|0-0---------------|--0-0---0---0---|0---------0-----|
    * *   *   * *    * *                  * *   *   *    *         *      
D  :----------------|------------------|----------------|----------------|
A  :----------------|------------------|----------------|----------------|
F  :----------------|------------------|----------------|----------------|
C  :0---------------|---------10-------|8---------------|7---------------|
G  :0---------------|---------10-------|8---------------|7---------------|
C  :0---------------|---------10-------|8---------------|7---------------|

============================================================================
                                                                        
D  :----------------|-----------------|----------------|----------------|
A  :----------------|-----------------|----------------|----------------|
F  :----------------|----7-10-9-------|----------------|--------6-------|
C  :----7---7-----6-|-----------8-7---|----------------|------------7---|
G  :----------------|---------------8-|5-----4---1---0-|--8-7-8-------4-|
C  :0-0---0---0-0---|0-0--------------|--0-0---0---0---|0---------0-----|
    * *   *   * *    * *                 * *   *   *    *         *     
D  :----------------|-----------------|----------------|----------------|
A  :----------------|-----------------|----------------|----------------|
F  :----------------|-----------------|----------------|----------------|
C  :0---------------|---------8-------|7---------------|----------------|
G  :0---------------|---------8-------|7---------------|----------------|
C  :0---------------|---------8-------|7---------------|----------------|

============================================================================
                                                                          
D  :----------------|------------------|----------------|-----------------|
A  :----------------|------------------|----------------|-----------------|
F  :----------------|----7-10--9-------|----------------|---------6-------|
C  :----7---7-----6-|------------8-7---|----------------|-------------7---|
G  :----------------|----------------8-|5-----4---1---0-|---8-7-8-------4-|
C  :0-0---0---0-0---|0-0---------------|--0-0---0---0---|-0---------0-----|
    * *   *   * *    * *                  * *   *   *    *         *     
D  :----------------|------------------|----------------|-----------------|
A  :----------------|------------------|----------------|-----------------|
F  :----------------|------------------|----------------|-----------------|
C  :0---------------|---------10-------|8---------------|10---------------|
G  :0---------------|---------10-------|8---------------|10---------------|
C  :0---------------|---------10-------|8---------------|10---------------|

============================================================================
                                                                   
D  :-------------------------------|-------------------------------|
A  :-------------------------------|-------------------------------|
F  :-------------------------------|-------------------------------|
C  :-------------------------------|-------------------------------|
G  :5-5-5-5-5-5-5-5-0-0-0-0-1-1-1-1|5-5-5-5-5-5-5-5-0-0-0-0-1-1-1-1|
C  :-------------------------------|-------------------------------|
                                                                   
D  :-------------------------------|-------------------------------|
A  :-------------------------------|-------------------------------|
F  :-------------------------------|-------------------------------|
C  :-------------------------------|-------------------------------|
G  :5-5-5-5-5-5-5-5-0-0-0-0-1-1-1-1|5-5-5-5-5-5-5-5-0-0-0-0-1-1-1-1|
C  :-------------------------------|-------------------------------|

============================================================================
                                                                   
D  :-------------------------------|-------------------------------|
A  :-------------------------------|-------------------------------|
F  :-------------------------------|-------------------------------|
C  :-------------------------------|-------------------------------|
G  :5-5-5-5-5-5-5-5-0-0-0-0-1-1-1-1|5-5-5-5-8-8-8-8-7-7-7-7-4-4-4-4|
C  :-------------------------------|-------------------------------|
                                                                   
D  :-------------------------------|-------------------------------|
A  :-------------------------------|-------------------------------|
F  :-------------------------------|-------------------------------|
C  :-------------------------------|-------------------------------|
G  :5-5-5-5-5-5-5-5-0-0-0-0-1-1-1-1|5-5-5-5-8-8-8-8-7-7-7-7-4-4-4-4|
C  :-------------------------------|-------------------------------|

============================================================================
                                                                   
D  :-------------------------------|-------------------------------|
A  :-------------------------------|-------------------------------|
F  :-------------------------------|-------------------------------|
C  :-------------------------------|-------------------------------|
G  :5-5-5-5-5-5-5-5-0-0-0-0-1-1-1-1|5-5-5-5-5-5-5-5-0-0-0-0-1-1-1-1|
C  :-------------------------------|-------------------------------|
                                                                   
D  :-------------------------------|-------------------------------|
A  :-------------------------------|-------------------------------|
F  :-------------------------------|-------------------------------|
C  :-------------------------------|-------------------------------|
G  :8-8-8-8-8-8-8-8-4-4-4-4-7-7-7-7|8-8-8-8-8-8-8-8-4-4-4-4-7-7-7-7|
C  :-------------------------------|-------------------------------|

============================================================================
                                                                           
D  :-------------------------------|---------------------------------------|
A  :-------------------------------|---------------------------------------|
F  :-------------------------------|---------------------------------------|
C  :-------------------------------|---------------------------------------|
G  :5-5-5-5-5-5-5-5-0-0-0-0-1-1-1-1|5-5-5-5--8--8--8--8--7--7--7--7-4-4-4-4|
C  :-------------------------------|---------------------------------------|
                                                                           
D  :-------------------------------|---------------------------------------|
A  :-------------------------------|---------------------------------------|
F  :-------------------------------|---------------------------------------|
C  :-------------------------------|---------------------------------------|
G  :8-8-8-8-8-8-8-8-4-4-4-4-7-7-7-7|8-8-8-8-11-11-11-11-10-10-10-10-7-7-7-7|
C  :-------------------------------|---------------------------------------|

============================================================================
                                                                   
D  :-------------------------------|-------------------------------|
A  :-------------------------------|-------------------------------|
F  :-------------------------------|-------------------------------|
C  :-------------------------------|-------------------------------|
G  :5-5-5-5-5-5-5-5-0-0-0-0-1-1-1-1|5-5-5-5-5-5-5-5-0-0-0-0-1-1-1-1|
C  :-------------------------------|-------------------------------|
                                                                   
D  :-------------------------------|-------------------------------|
A  :-------------------------------|-------------------------------|
F  :-------------------------------|-------------------------------|
C  :-------------------------------|-------------------------------|
G  :8-8-8-8-8-8-8-8-4-4-4-4-7-7-7-7|8-8-8-8-8-8-8-8-4-4-4-4-7-7-7-7|
C  :-------------------------------|-------------------------------|

============================================================================
                                                                           
D  :-------------------------------|---------------------------------------|
A  :-------------------------------|---------------------------------------|
F  :-------------------------------|---------------------------------------|
C  :-------------------------------|---------------------------------------|
G  :5-5-5-5-5-5-5-5-0-0-0-0-1-1-1-1|5-5-5-5--8--8--8--8--7--7--7--7-4-4-4-4|
C  :-------------------------------|---------------------------------------|
                                                                           
D  :-------------------------------|---------------------------------------|
A  :-------------------------------|---------------------------------------|
F  :-------------------------------|---------------------------------------|
C  :-------------------------------|---------------------------------------|
G  :8-8-8-8-8-8-8-8-4-4-4-4-7-7-7-7|8-8-8-8-11-11-11-11-10-10-10-10-7-7-7-7|
C  :-------------------------------|---------------------------------------|

============================================================================
                                                                   
D  :-------------------------------|-------------------------------|
A  :-------------------------------|-------------------------------|
F  :-------------------------------|-------------------------------|
C  :-------------------------------|-------------------------------|
G  :5-5-5-5-5-5-5-5-0-0-0-0-1-1-1-1|5-5-5-5-5-5-5-5-0-0-0-0-1-1-1-1|
C  :-------------------------------|-------------------------------|
                                                                   
D  :-------------------------------|-------------------------------|
A  :-------------------------------|-------------------------------|
F  :-------------------------------|-------------------------------|
C  :-------------------------------|-------------------------------|
G  :8-8-8-8-8-8-8-8-4-4-4-4-7-7-7-7|8-8-8-8-8-8-8-8-4-4-4-4-7-7-7-7|
C  :-------------------------------|-------------------------------|

============================================================================
                                                                           
D  :-------------------------------|---------------------------------------|
A  :-------------------------------|---------------------------------------|
F  :-------------------------------|---------------------------------------|
C  :-------------------------------|---------------------------------------|
G  :5-5-5-5-5-5-5-5-0-0-0-0-1-1-1-1|5-5-5-5--8--8--8--8--7--7--7--7-4-4-4-4|
C  :-------------------------------|---------------------------------------|
                                                                           
D  :-------------------------------|---------------------------------------|
A  :-------------------------------|---------------------------------------|
F  :-------------------------------|---------------------------------------|
C  :-------------------------------|---------------------------------------|
G  :8-8-8-8-8-8-8-8-4-4-4-4-7-7-7-7|8-8-8-8-11-11-11-11-10-10-10-10-7-7-7-7|
C  :-------------------------------|---------------------------------------|

============================================================================
                            
D  :------------------------|
A  :------------------------|
F  :------------------------|
C  :7-7-7-5-5-5-------------|
G  :------------8-8-8-4-4-4-|
C  :------------------------|
    * * * * * * * * * * * *             
D  :------------------------|
A  :------------------------|
F  :------------------------|
C  :7-7-7-5-5-5-------------|
G  :------------8-8-8-4-4-4-|
C  :------------------------|
    * * * * * * * * * * * *
============================================================================
                                                                        
D  :-----------------------|---------------------|----------------------|
A  :-----------------------|---------------------|----------------------|
F  :-----------------------|---------------------|----------------------|
C  :-----------------------|---------------------|----------------------|
G  :*-0-0-0-0-0-0-0-0------|0-0-0-0------0-0-0-0-|----0-0----0-0-0-0-0-0|
C  :--0-0-0-0-0-0-0-0-*----|0-0-0-0-*----0-0-0-0-|*---0-0-*--0-0-0-0-0-0|
      * * * * * * * *       * * * *      * * * *      * *    * * * * * *
D  :-----------------------|---------------------|----------------------|
A  :-----------------------|---------------------|----------------------|
F  :-----------------------|---------------------|----------------------|
C  :-----------------------|---------------------|----------------------|
G  :*-0-0-0-0-0-0-0-0------|0-0-0-0------0-0-0-0-|----0-0----0-0-0-0-0-0|
C  :--0-0-0-0-0-0-0-0-*----|0-0-0-0-*----0-0-0-0-|*---0-0-*--0-0-0-0-0-0|
      * * * * * * * *       * * * *      * * * *      * *    * * * * * *
============================================================================
                                                                    
D  :--------------------|-------------------|-----------------------|
A  :--------------------|-------------------|-----------------------|
F  :--------------------|-------------------|-----------------------|
C  :--------------------|-------------------|-----------------------|
G  :0-0------0-0-0-0----|--0-0-0-0-----0-0--|--0-0-0-0-0-0-0-0------|
C  :0-0-*----0-0-0-0-*--|--0-0-0-0-*---0-0-*|--0-0-0-0-0-0-0-0-*----|
    * *      * * * *       * * * *     * *     * * * * * * * *      
D  :--------------------|-------------------|-----------------------|
A  :--------------------|-------------------|-----------------------|
F  :--------------------|-------------------|-----------------------|
C  :--------------------|-------------------|-----------------------|
G  :0-0------0-0-0-0----|--0-0-0-0-----0-0--|--0-0-0-0-0-0-0-0------|
C  :0-0-*----0-0-0-0-*--|--0-0-0-0-*---0-0-*|--0-0-0-0-0-0-0-0-*----|
    * *      * * * *       * * * *     * *     * * * * * * * *
============================================================================
                                                                     
D  :---------------------|----------------------|--------------------|
A  :---------------------|----------------------|--------------------|
F  :---------------------|----------------------|--------------------|
C  :---------------------|----------------------|--------------------|
G  :0-0-0-0------0-0-0-0-|----0-0----0-0-0-0-0-0|0-0------0-0-0-0----|
C  :0-0-0-0-*----0-0-0-0-|*---0-0-*--0-0-0-0-0-0|0-0-*----0-0-0-0-*--|
    * * * *      * * * *      * *    * * * * * * * *      * * * *    
D  :---------------------|----------------------|--------------------|
A  :---------------------|----------------------|--------------------|
F  :---------------------|----------------------|--------------------|
C  :---------------------|----------------------|--------------------|
G  :0-0-0-0------0-0-0-0-|----0-0----0-0-0-0-0-0|0-0------0-0-0-0----|
C  :0-0-0-0-*----0-0-0-0-|*---0-0-*--0-0-0-0-0-0|0-0-*----0-0-0-0-*--|
    * * * *      * * * *      * *    * * * * * * * *      * * * *
============================================================================
                                                                     
D  :-------------------|-----------------------|---------------------|
A  :-------------------|-----------------------|---------------------|
F  :-------------------|-----------------------|---------------------|
C  :-------------------|-----------------------|---------------------|
G  :--0-0-0-0-----0-0--|--0-0-0-0-0-0-0-0------|0-0-0-0------0-0-0-0-|
C  :--0-0-0-0-*---0-0-*|--0-0-0-0-0-0-0-0-*----|0-0-0-0-*----0-0-0-0-|
      * * * *     * *     * * * * * * * *       * * * *      * * * * 
D  :-------------------|-----------------------|---------------------|
A  :-------------------|-----------------------|---------------------|
F  :-------------------|-----------------------|---------------------|
C  :-------------------|-----------------------|---------------------|
G  :--0-0-0-0-----0-0--|--0-0-0-0-0-0-0-0------|0-0-0-0------0-0-0-0-|
C  :--0-0-0-0-*---0-0-*|--0-0-0-0-0-0-0-0-*----|0-0-0-0-*----0-0-0-0-|
      * * * *     * *     * * * * * * * *       * * * *      * * * *
============================================================================
                                                                   
D  :----------------------|--------------------|-------------------|
A  :----------------------|--------------------|-------------------|
F  :----------------------|--------------------|-------------------|
C  :----------------------|--------------------|-------------------|
G  :----0-0----0-0-0-0-0-0|0-0------0-0-0-0----|--0-0-0-0-----0-0--|
C  :*---0-0-*--0-0-0-0-0-0|0-0-*----0-0-0-0-*--|--0-0-0-0-*---0-0-*|
        * *    * * * * * * * *      * * * *       * * * *     * *  
D  :----------------------|--------------------|-------------------|
A  :----------------------|--------------------|-------------------|
F  :----------------------|--------------------|-------------------|
C  :----------------------|--------------------|-------------------|
G  :----0-0----0-0-0-0-0-0|0-0------0-0-0-0----|--0-0-0-0-----0-0--|
C  :*---0-0-*--0-0-0-0-0-0|0-0-*----0-0-0-0-*--|--0-0-0-0-*---0-0-*|
        * *    * * * * * * * *      * * * *       * * * *     * *
============================================================================
                                                                  
D  :-------------------|----------------------|-------------------|
A  :-------------------|----------------------|-------------------|
F  :--9-----10-7-9-----|----------------------|--9-----10-7-9-----|
C  :----7-8--------8-0-|----------------------|----7-8--------8-0-|
G  :-------------------|--7-8-0---4-5-0-1-3-0-|-------------------|
C  :0------------------|0-------0-------------|0------------------|
    *                   *       *              *                  
D  :-------------------|----------------------|-------------------|
A  :-------------------|----------------------|-------------------|
F  :-------------------|----------------------|-------------------|
C  :0------------------|----------------------|0------------------|
G  :0------------------|----------------------|0------------------|
C  :0------------------|----------------------|0-*----------------|
                                               *
============================================================================
                                                                          
D  :----------------------|----------------------|------------------------|
A  :----------------------|----------------------|------------------------|
F  :----------------------|--9-------10-7-9------|------------------------|
C  :----------------------|------7-8--------8-0--|------------------------|
G  :--7-8-0-*-0-0-0-0-0-0-|----------------------|--7-8-0---4-5-0---1-3-0-|
C  :0---------0-0-0-0-0-0-|0---------------------|0-------0---------------|
    *         * * * * * *  *                      *       *               
D  :----------------------|----------------------|------------------------|
A  :----------------------|----------------------|------------------------|
F  :----------------------|----------------------|------------------------|
C  :0---------------------|----------------------|------------------------|
G  :0---------0-0-0-0-0-0-|0-0-0-0------0-0-0-0-0|0---------0-0-0-0-0-----|
C  :0-*-------0-0-0-0-0-0-|0-0-0-0-*----0-0-0-0-0|0-*-------0-0-0-0-0---*-|
    *         * * * * * *  * * * *      * * * * * *         * * * * *
============================================================================
                                                                        
D  :----------------------|----------------------|----------------------|
A  :----------------------|----------------------|----------------------|
F  :--9-------10-7-9------|----------------------|--9-------10-7-9------|
C  :------7-8--------8-0--|----------------------|------7-8--------8-0--|
G  :----------------------|--7-8-0-*-0-0-0-0-0-0-|----------------------|
C  :0---------------------|0---------0-0-0-0-0-0-|0---------------------|
    *                      *         * * * * * *  *            
D  :----------------------|----------------------|----------------------|
A  :----------------------|----------------------|----------------------|
F  :----------------------|----------------------|----------------------|
C  :----------------------|----------------------|----------------------|
G  :--0-0-0------0-0-0-0-0|0---------0-0-0-0-0-0-|0-0-0-0------0-0-0-0-0|
C  :--0-0-0-*----0-0-0-0-0|0-*-------0-0-0-0-0-0-|0-0-0-0-*----0-0-0-0-0|
      * * *      * * * * * *         * * * * * *  * * * *      * * * * *
============================================================================
                                                                          
D  :------------------------|----------------------|----------------------|
A  :------------------------|----------------------|----------------------|
F  :------------------------|--9-------10-7-9------|----------------------|
C  :------------------------|------7-8--------8-0--|----------------------|
G  :--7-8-0---4-5-0---1-3-0-|----------------------|--7-8-0-*-0-0-0-0-0-0-|
C  :0-------0---------------|0---------------------|0---------0-0-0-0-0-0-|
    *       *                *                      *         * * * * * * 
D  :------------------------|----------------------|----------------------|
A  :------------------------|----------------------|----------------------|
F  :------------------------|----------------------|----------------------|
C  :------------------------|----------------------|----------------------|
G  :0---------0-0-0-0-0-----|--0-0-0------0-0-0-0-0|0---------0-0-0-0-0-0-|
C  :0-*-------0-0-0-0-0---*-|--0-0-0-*----0-0-0-0-0|0-*-------0-0-0-0-0-0-|
    *         * * * * *        * * *      * * * * * *         * * * * * *
============================================================================
                                                                          
D  :----------------------|------------------------|----------------------|
A  :----------------------|------------------------|----------------------|
F  :--9-------10-7-9------|------------------------|--9-------10-7-9------|
C  :------7-8--------8-0--|------------------------|------7-8--------8-0--|
G  :----------------------|--7-8-0---4-5-0---1-3-0-|----------------------|
C  :0---------------------|0-------0---------------|0---------------------|
    *                      *       *                *                         
D  :----------------------|------------------------|----------------------|
A  :----------------------|------------------------|----------------------|
F  :----------------------|------------------------|----------------------|
C  :----------------------|------------------------|----------------------|
G  :0-0-0-0------0-0-0-0-0|0---------0-0-0-0-0-----|--0-0-0------0-0-0-0-0|
C  :0-0-0-0-*----0-0-0-0-0|0-*-------0-0-0-0-0---*-|--0-0-0-*----0-0-0-0-0|
    * * * *      * * * * * *         * * * * *        * * *      * * * * *
============================================================================
                                                                          
D  :----------------------|----------------------|------------------------|
A  :----------------------|----------------------|------------------------|
F  :----------------------|--9-------10-7-9------|------------------------|
C  :----------------------|------7-8--------8-0--|------------------------|
G  :--7-8-0-*-0-0-0-0-0-0-|----------------------|--7-8-0---4-5-0---1-3-0-|
C  :0---------0-0-0-0-0-0-|0---------------------|0-------0---------------|
    *         * * * * * *  *                      *       *              
D  :----------------------|----------------------|------------------------|
A  :----------------------|----------------------|------------------------|
F  :----------------------|----------------------|------------------------|
C  :----------------------|----------------------|------------------------|
G  :0---------0-0-0-0-0-0-|0-0-0-0------0-0-0-0-0|0---------0-0-0-0-0-----|
C  :0-*-------0-0-0-0-0-0-|0-0-0-0-*----0-0-0-0-0|0-*-------0-0-0-0-0---*-|
    *         * * * * * *  * * * *      * * * * * *         * * * * *
============================================================================
                                                 
D  :----------------------|----------------------|
A  :----------------------|----------------------|
F  :--9-------10-7-9------|----------------------|
C  :------7-8--------8-0--|----------------------|
G  :----------------------|--7-8-0-*-0-0-0-0-0-0-|
C  :0---------------------|0---------0-0-0-0-0-0-|
    *                      *         * * * * * * 
D  :----------------------|----------------------|
A  :----------------------|----------------------|
F  :----------------------|----------------------|
C  :----------------------|----------------------|
G  :--0-0-0------0-0-0-0-0|0---------0-0-0-0-0-0-|
C  :--0-0-0-*----0-0-0-0-0|0-*-------0-0-0-0-0-0-|
      * * *      * * * * * *         * * * * * *
============================================================================
                                                                        
D  :13-10-12-9-------9-13-|10-12-9-------9-13-10-|12-9-------9-13-10-12-|
A  :-----------10-11------|--------10-11---------|-----10-11------------|
F  :----------------------|----------------------|----------------------|
C  :----------------------|----------------------|----------------------|
G  :----------------------|----------------------|----------------------|
C  :----------------------|----------------------|----------------------|
                                                                        
D  :----------------------|----------------------|----------------------|
A  :----------------------|----------------------|----------------------|
F  :-7--7--7-7-10--7-9--7-|-6--6-6--6-------7--7-|-7-7-10--7-9--7--6--6-|
C  :----------------------|------------7-7-------|----------------------|
G  :----------------------|----------------------|----------------------|
C  :----------------------|----------------------|----------------------|

============================================================================
                                                                       
D  :9-------9-13-10-12-9-|------9-13-10-12-9----|---9-13-10-12-9-------|
A  :--10-11--------------|10-11--------------10-|11--------------10-11-|
F  :---------------------|----------------------|----------------------|
C  :---------------------|----------------------|----------------------|
G  :---------------------|----------------------|----------------------|
C  :---------------------|----------------------|----------------------|
                                                                       
D  :---------------------|----------------------|----------------------|
A  :---------------------|----------------------|----------------------|
F  :6--6-------7--7--7-7-|10--7-9--7--6--6-6--6-|------7--7--7-7-10--7-|
C  :------7-7------------|----------------------|-7-7------------------|
G  :---------------------|----------------------|----------------------|
C  :---------------------|----------------------|----------------------|

============================================================================
                                                   
D  :9-13-10-12-9-------9-|13-10-12-9---------9-13--|
A  :-------------10-11---|-----------10---11-------|
F  :---------------------|-------------------------|
C  :---------------------|-------------------------|
G  :---------------------|-------------------------|
C  :---------------------|-------------------------|
                                                   
D  :---------------------|-------------------------|
A  :---------------------|-------------------------|
F  :9--7--6--6-6--6------|-------------------------|
C  :-----------------7-7-|-------------------------|
G  :---------------------|-0-----0----0-0--0----0-0|
C  :---------------------|-0-----0----0-0--0-*--0-0|
                           *     *    * *  *    * *
============================================================================
                                                           
D  :10-12-9-----------9---13-10-|12-9---------9-13---10-12-|
A  :--------10---11-------------|-----10---11--------------|
F  :----------------------------|--------------------------|
C  :----------------------------|--------------------------|
G  :----------------------------|--------------------------|
C  :----------------------------|--------------------------|
                                                           
D  :----------------------------|--------------------------|
A  :----------------------------|--------------------------|
F  :----------------------------|--------------------------|
C  :----------------------------|--------------------------|
G  :-0-------0-0--0-0-0-0--0----|-0----0-0--0----0-0--0----|
C  :-0--*----0-0--0-0-0-0--0----|-0----0-0--0-*--0-0--0--*-|
     *       * *  * * * *  *      *    * *  *    * *  *
============================================================================
                                                           
D  :9-----------9---13-10-12-9-|--------9-13---10-12-9-----|
A  :--10---11------------------|10---11----------------10--|
F  :---------------------------|---------------------------|
C  :---------------------------|---------------------------|
G  :---------------------------|---------------------------|
C  :---------------------------|---------------------------|
                                                           
D  :---------------------------|---------------------------|
A  :---------------------------|---------------------------|
F  :---------------------------|---------------------------|
C  :---------------------------|---------------------------|
G  :---0-0--0-0-0-0--0-----0---|-0-0--0----0-0--0-------0-0|
C  :---0-0--0-0-0-0--0-----0---|-0-0--0-*--0-0--0--*----0-0|
       * *  * * * *  *     *     * *  *    * *  *       * *
============================================================================
                                                             
D  :-----9---13-10-12-9---------|9-13---10-12-9-----------9--|
A  :11------------------10---11-|---------------10---11------|
F  :----------------------------|----------------------------|
C  :----------------------------|----------------------------|
G  :----------------------------|----------------------------|
C  :----------------------------|----------------------------|
                                                             
D  :----------------------------|----------------------------|
A  :----------------------------|----------------------------|
F  :----------------------------|----------------------------|
C  :----------------------------|----------------------------|
G  :-0-0-0-0--0-----0----0-0--0-|---0-0--0-------0-0--0-0-0-0|
C  :-0-0-0-0--0-----0----0-0--0-|*--0-0--0--*----0-0--0-0-0-0|
     * * * *  *     *    * *  *     * *  *       * *  * * * *
============================================================================
                                                                   
D  :-------------------|----------------------|--------------------|
A  :-------------------|----------------------|--------------------|
F  :-------------------|----------------------|--------------------|
C  :-------------------|----------------------|--------------------|
G  :0---0---0-0-0---0-0|0-----0-0-0-0-0-0-0---|0---0-0-0---0-0-0---|
C  :0---0---0-0-0-*-0-0|0-*---0-0-0-0-0-0-0---|0---0-0-0-*-0-0-0-*-|
    *   *   * * *   * * *     * * * * * * *    *   * * *   * * *   
D  :-------------------|----------------------|--------------------|
A  :-------------------|----------------------|--------------------|
F  :-------------------|----------------------|--------------------|
C  :-------------------|----------------------|--------------------|
G  :0---0---0-0-0---0-0|0-----0-0-0-0-0-0-0---|0---0-0-0---0-0-0---|
C  :0---0---0-0-0-*-0-0|0-*---0-0-0-0-0-0-0---|0---0-0-0-*-0-0-0-*-|
    *   *   * * *   * * *     * * * * * * *    *   * * *   * * *
============================================================================
                                                                       
D  :----------------------|---------------------|----------------------|
A  :----------------------|---------------------|----------------------|
F  :----------------------|---------------------|----------------------|
C  :----------------------|---------------------|----------------------|
G  :--0-0-0-0-0-0-0---0---|0-0-0---0-0-0-----0-0|0-0-0-0-0---0---0-0-0-|
C  :--0-0-0-0-0-0-0---0---|0-0-0-*-0-0-0-*---0-0|0-0-0-0-0---0---0-0-0-|
      * * * * * * *   *    * * *   * * *     * * * * * * *   *   * * * 
D  :----------------------|---------------------|----------------------|
A  :----------------------|---------------------|----------------------|
F  :----------------------|---------------------|----------------------|
C  :----------------------|---------------------|----------------------|
G  :--0-0-0-0-0-0-0---0---|0-0-0---0-0-0-----0-0|0-0-0-0-0---0---0-0-0-|
C  :--0-0-0-0-0-0-0---0---|0-0-0-*-0-0-0-*---0-0|0-0-0-0-0---0---0-0-0-|
      * * * * * * *   *    * * *   * * *     * * * * * * *   *   * * *
============================================================================
                                                                       
D  :-----------------------|--------------------|----------------------|
A  :-----------------------|--------------------|----------------------|
F  :-----------------------|7-7-7-7-10---7-9-7--|6-6-6-6-----------7-7-|
C  :-----------------------|--------------------|----------7---7-------|
G  :--0-0-0-----0-0-0-0-0-0|--------------------|----------------------|
C  :*-0-0-0-*---0-0-0-0-0-0|--------------------|----------------------|
      * * *     * * * * * *                                        
D  :-----------------------|--------------------|----------------------|
A  :-----------------------|--------------------|----------------------|
F  :-----------------------|--------------------|----------------------|
C  :-----------------------|--------------------|----------------------|
G  :--0-0-0-----0-0-0-0-0-0|0---0----0-0-0---0-0|0-----0-0-0-0-0-0-0---|
C  :*-0-0-0-*---0-0-0-0-0-0|0---0----0-0-0-*-0-0|0-*---0-0-0-0-0-0-0---|
      * * *     * * * * * * *   *    * * *   * * *     * * * * * * *
============================================================================
                                                                       
D  :---------------------|----------------------|----------------------|
A  :---------------------|----------------------|----------------------|
F  :7-7-10---7-9-7---6-6-|6-6-----------7-7-7-7-|10---7-9-7---6-6-6-6--|
C  :---------------------|------7---7-----------|----------------------|
G  :---------------------|----------------------|----------------------|
C  :---------------------|----------------------|----------------------|
                                                                       
D  :---------------------|----------------------|----------------------|
A  :---------------------|----------------------|----------------------|
F  :---------------------|----------------------|----------------------|
C  :---------------------|----------------------|----------------------|
G  :0----0-0-0---0-0-0---|--0-0-0-0-0-0-0---0---|-0-0-0---0-0-0-----0-0|
C  :0----0-0-0-*-0-0-0-*-|--0-0-0-0-0-0-0---0---|-0-0-0-*-0-0-0-*---0-0|
    *    * * *   * * *      * * * * * * *   *     * * *   * * *     * *
============================================================================
                                                   
D  :-----------------------|-----------------------|
A  :-----------------------|-----------------------|
F  :--------7-7-7-7-10---7-|9-7---6-6-6-6----------|
C  :7---7------------------|----------------7---7--|
G  :-----------------------|-----------------------|
C  :-----------------------|-----------------------|
                                                   
D  :-----------------------|-----------------------|
A  :-----------------------|-----------------------|
F  :-----------------------|-----------------------|
C  :-----------------------|-----------------------|
G  :0-0-0-0-0---0----0-0-0-|--0-0-0-----0-0-0-0-0-0|
C  :0-0-0-0-0---0----0-0-0-|*-0-0-0-*---0-0-0-0-0-0|
    * * * * *   *    * * *    * * *     * * * * * *
============================================================================
                                     
D  :----------------|----------------|
A  :----------------|----------------|
F  :----------------|--------6-------|
C  :----------------|------------7---|
G  :0---------------|--8-7-8-------4-|
C  :0---------------|0---------0-----|
    *                *         *    
D  :----------------|----------------|
A  :----------------|----------------|
F  :----------------|----------------|
C  :----------------|----------------|
G  :0---------------|----------------|
C  :0---------------|*---------------|
    *
============================================================================
                                                                        
D  :----------------|-----------------|----------------|----------------|
A  :----------------|-----------------|----------------|----------------|
F  :----------------|----7-10-9-------|----------------|--------6-------|
C  :----7---7-----6-|-----------8-7---|----------------|------------7---|
G  :----------------|---------------8-|5-----4---1---0-|--8-7-8-------4-|
C  :0-0---0---0-0---|0-0--------------|--0-0---0---0---|0---------0-----|
    * *   *   * *    * *                 * *   *   *    *         *     
D  :----------------|-----------------|----------------|----------------|
A  :----------------|-----------------|----------------|----------------|
F  :----------------|----7-10-9-------|----------------|--------6-------|
C  :----7---7-----6-|-----------8-7---|----------------|------------7---|
G  :----------------|---------------8-|5-----4---1---0-|--8-7-8-------4-|
C  :0-0---0---0-0---|0-0--------------|--0-0---0---0---|0---------0-----|
    * *   *   * *    * *                 * *   *   *    *         *
============================================================================
                                                                        
D  :----------------|-----------------|----------------|----------------|
A  :----------------|-----------------|----------------|----------------|
F  :----------------|----7-10-9-------|----------------|--------6-------|
C  :----7---7-----6-|-----------8-7---|----------------|------------7---|
G  :----------------|---------------8-|5-----4---1---0-|--8-7-8-------4-|
C  :0-0---0---0-0---|0-0--------------|--0-0---0---0---|0---------0-----|
    * *   *   * *    * *                 * *   *   *    *         *     
D  :----------------|-----------------|----------------|----------------|
A  :----------------|-----------------|----------------|----------------|
F  :----------------|----7-10-9-------|----------------|--------6-------|
C  :----7---7-----6-|-----------8-7---|----------------|------------7---|
G  :----------------|---------------8-|5-----4---1---0-|--8-7-8-------4-|
C  :0-0---0---0-0---|0-0--------------|--0-0---0---0---|0---------0-----|
    * *   *   * *    * *                 * *   *   *    *         *
============================================================================
                                                                        
D  :----------------|-----------------|----------------|----------------|
A  :----------------|-----------------|----------------|----------------|
F  :----------------|----7-10-9-------|----------------|--------6-------|
C  :----7---7-----6-|-----------8-7---|----------------|------------7---|
G  :----------------|---------------8-|5-----4---1---0-|--8-7-8-------4-|
C  :0-0---0---0-0---|0-0--------------|--0-0---0---0---|0---------0-----|
    * *   *   * *    * *                 * *   *   *    *         *     
D  :----------------|-----------------|----------------|----------------|
A  :----------------|-----------------|----------------|----------------|
F  :----------------|----7-10-9-------|----------------|--------6-------|
C  :----7---7-----6-|-----------8-7---|----------------|------------7---|
G  :----------------|---------------8-|5-----4---1---0-|--8-7-8-------4-|
C  :0-0---0---0-0---|0-0--------------|--0-0---0---0---|0---------0-----|
    * *   *   * *    * *                 * *   *   *    *         *
============================================================================
                                                                        
D  :----------------|-----------------|----------------|----------------|
A  :----------------|-----------------|----------------|----------------|
F  :----------------|----7-10-9-------|----------------|--------6-------|
C  :----7---7-----6-|-----------8-7---|----------------|------------7---|
G  :----------------|---------------8-|5-----4---1---0-|--8-7-8-------4-|
C  :0-0---0---0-0---|0-0--------------|--0-0---0---0---|0---------0-----|
    * *   *   * *    * *                 * *   *   *    *         *     
D  :----------------|-----------------|----------------|----------------|
A  :----------------|-----------------|----------------|----------------|
F  :----------------|----7-10-9-------|----------------|--------6-------|
C  :----7---7-----6-|-----------8-7---|----------------|------------7---|
G  :----------------|---------------8-|5-----4---1---0-|--8-7-8-------4-|
C  :0-0---0---0-0---|0-0--------------|--0-0---0---0---|0---------0-----|
    * *   *   * *    * *                 * *   *   *    *         *
============================================================================
                     PICK   SLIDE             
D  :----------------|-------------------------------|
A  :----------------|-------------------------------|
F  :----------------|-------------------------------|
C  :----------------|-------------------------------|
G  :*---------------|24-----------------------------|
C  :----------------|24-\-\-\-\-\-\-\-\-\-\-\-\-\-\-|
                     PICK   SLIDE             
D  :----------------|-------------------------------|
A  :----------------|-------------------------------|
F  :----------------|-------------------------------|
C  :----------------|-------------------------------|
G  :*---------------|24-----------------------------|
C  :----------------|24-\-\-\-\-\-\-\-\-\-\-\-\-\-\-|

============================================================================
                                                            
D  :------------------|------------------|------------------|
A  :------------------|------------------|------------------|
F  :------------------|------------------|------------------|
C  :------------------|------------------|------------------|
G  :0---7-8-0-0---0---|1-3-0-0---0-------|0---7-8-0-0---0---|
C  :0---------0---0---|------0---0-*-----|0---------0---0---|
    *         *   *          *   *        *         *   *   
D  :------------------|------------------|------------------|
A  :------------------|------------------|------------------|
F  :------------------|------------------|------------------|
C  :------------------|------------------|------------------|
G  :0---7-8-0-0---0---|1-3-0-0---0-------|0---7-8-0-0---0---|
C  :0---------0---0---|------0---0-*-----|0---------0---0---|
    *         *   *          *   *        *         *   *
============================================================================
                                                            
D  :------------------|------------------|------------------|
A  :------------------|------------------|------------------|
F  :------------------|------------------|------------------|
C  :------------------|------------------|------------------|
G  :1-3-0-0---0-------|0---7-8-0-0---0---|1-3-0-0---0-------|
C  :------0---0-*-----|0---------0---0---|------0---0-*-----|
          *   *        *         *   *          *   *       
D  :------------------|------------------|------------------|
A  :------------------|------------------|------------------|
F  :------------------|------------------|------------------|
C  :------------------|------------------|------------------|
G  :1-3-0-0---0-------|0---7-8-0-0---0---|1-3-0-0---0-------|
C  :------0---0-*-----|0---------0---0---|------0---0-*-----|
          *   *        *         *   *          *   *
============================================================================
                                         
D  :------------------|------------------|
A  :------------------|------------------|
F  :------------------|------------------|
C  :------------------|------------------|
G  :0---7-8-0-0---0---|1-3-0-0---0-------|
C  :0---------0---0---|------0---0-*-----|
    *         *   *          *   *       
D  :------------------|------------------|
A  :------------------|------------------|
F  :------------------|------------------|
C  :------------------|------------------|
G  :0---7-8-0-0---0---|1-3-0-0---0-------|
C  :0---------0---0---|------0---0-*-----|
    *         *   *          *   *
============================================================================
                                                               
D  :-------------------|-------------------|-------------------|
A  :-------------------|-------------------|-------------------|
F  :-------------------|-------------------|-------------------|
C  :-------------------|-------------------|-------------------|
G  :0---0-0-0-0----0---|0-0-0-0----0-------|----0-0-0-0----0---|
C  :0-*-0-0-0-0-*--0-*-|0-0-0-0-*--0-*-----|----0-0-0-0-*--0-*-|
    *   * * * *    *    * * * *    *            * * * *    *   
D  :-------------------|-------------------|-------------------|
A  :-------------------|-------------------|-------------------|
F  :-------------------|-------------------|-------------------|
C  :-------------------|-------------------|-------------------|
G  :0---0-0-0-0----0---|0-0-0-0----0-------|----0-0-0-0----0---|
C  :0-*-0-0-0-0-*--0-*-|0-0-0-0-*--0-*-----|----0-0-0-0-*--0-*-|
    *   * * * *    *    * * * *    *            * * * *    *
============================================================================
                                                            
D  :----------------|-------------------|-------------------|
A  :----------------|-------------------|-------------------|
F  :----------------|-------------------|-------------------|
C  :----------------|-------------------|-------------------|
G  :0-0-0-0-0-0-0-0-|0---0-0-0-0--------|----0-0-0-0----0---|
C  :0-0-0-0-0-0-0-0-|0-*-0-0-0-0-*------|----0-0-0-0-*--0-*-|
    * * * * * * * *  *   * * * *             * * * *    *   
D  :----------------|-------------------|-------------------|
A  :----------------|-------------------|-------------------|
F  :----------------|-------------------|-------------------|
C  :----------------|-------------------|-------------------|
G  :0-0-0-0-0-0-0-0-|0---0-0-0-0--------|----0-0-0-0----0---|
C  :0-0-0-0-0-0-0-0-|0-*-0-0-0-0-*------|----0-0-0-0-*--0-*-|
    * * * * * * * *  *   * * * *             * * * *    *
============================================================================
                                                               
D  :-------------------|-------------------|-------------------|
A  :-------------------|-------------------|-------------------|
F  :-------------------|-------------------|-------------------|
C  :-------------------|-------------------|-------------------|
G  :0---0-0-0-0----0---|0-0-0-0----0-------|----0-0-0-0----0---|
C  :0-*-0-0-0-0-*--0-*-|0-0-0-0-*--0-*-----|----0-0-0-0-*--0-*-|
    *   * * * *    *    * * * *    *            * * * *    *   
D  :-------------------|-------------------|-------------------|
A  :-------------------|-------------------|-------------------|
F  :-------------------|-------------------|-------------------|
C  :-------------------|-------------------|-------------------|
G  :0---0-0-0-0----0---|0-0-0-0----0-------|----0-0-0-0----0---|
C  :0-*-0-0-0-0-*--0-*-|0-0-0-0-*--0-*-----|----0-0-0-0-*--0-*-|
    *   * * * *    *    * * * *    *            * * * *    *
============================================================================
                                                            
D  :----------------|-------------------|-------------------|
A  :----------------|-------------------|-------------------|
F  :----------------|-------------------|-------------------|
C  :----------------|-------------------|-------------------|
G  :0-0-0-0-0-0-0-0-|0---0-0-0-0--------|----0-0-0-0----0---|
C  :0-0-0-0-0-0-0-0-|0-*-0-0-0-0-*------|----0-0-0-0-*--0-*-|
    * * * * * * * *  *   * * * *             * * * *    *   
D  :----------------|-------------------|-------------------|
A  :----------------|-------------------|-------------------|
F  :----------------|-------------------|-------------------|
C  :----------------|-------------------|-------------------|
G  :0-0-0-0-0-0-0-0-|0---0-0-0-0--------|----0-0-0-0----0---|
C  :0-0-0-0-0-0-0-0-|0-*-0-0-0-0-*------|----0-0-0-0-*--0-*-|
    * * * * * * * *  *   * * * *             * * * *    *
============================================================================
                                                            
D  :------------------|------------------|------------------|
A  :------------------|------------------|------------------|
F  :------------------|------------------|------------------|
C  :------------------|------------------|------------------|
G  :0---7-8-0-0---0---|1-3-0-0---0---3---|0---4-5-0-0---0---|
C  :0---------0---0---|------0---0-------|0---------0---0---|
    *         *   *          *   *        *         *   *   
D  :------------------|------------------|------------------|
A  :------------------|------------------|------------------|
F  :------------------|------------------|------------------|
C  :------------------|------------------|------------------|
G  :0---7-8-0-0---0---|1-3-0-0---0---3---|0---4-5-0-0---0---|
C  :0---------0---0---|------0---0-------|0---------0---0---|
    *         *   *          *   *        *         *   *
============================================================================
                                                                       
D  :-------------------|--------------------|--------------------------|
A  :-------------------|--------------------|--------------------------|
F  :7-10-7---------9---|--------------------|--------------------------|
C  :-------8-0-7-8---8-|--------------------|--------------------------|
G  :-------------------|0---10-12-0-0---0---|8-10-0-0---10-12-0-8-10-0-|
C  :-------------------|0-----------0---0---|-------0------------------|
                        *           *   *           *                  
D  :-------------------|--------------------|--------------------------|
A  :-------------------|--------------------|--------------------------|
F  :7-10-7---------9---|--------------------|--------------------------|
C  :-------8-0-7-8---8-|--------------------|--------------------------|
G  :-------------------|0---10-12-0-0---0---|8-10-0-0---10-12-0-8-10-0-|
C  :-------------------|0-----------0---0---|-------0------------------|
                        *           *   *           *
============================================================================
                                                            
D  :------------------|------------------|------------------|
A  :------------------|------------------|------------------|
F  :------------------|------------------|------------------|
C  :------------------|------------------|------------------|
G  :0---7-8-0-0---0---|1-3-0-0---0---3---|0---4-5-0-0---0---|
C  :0---------0---0---|------0---0-------|0---------0---0---|
    *         *   *          *   *        *         *   *   
D  :------------------|------------------|------------------|
A  :------------------|------------------|------------------|
F  :------------------|------------------|------------------|
C  :------------------|------------------|------------------|
G  :0---7-8-0-0---0---|1-3-0-0---0---3---|0---4-5-0-0---0---|
C  :0---------0---0---|------0---0-------|0---------0---0---|
    *         *   *          *   *        *         *   *
============================================================================
                                                                         
D  :-------------------|--------------------|----------------------------|
A  :-------------------|--------------------|----------------------------|
F  :7-10-7---------9---|--------------------|----------------------------|
C  :-------8-0-7-8---8-|--------------------|----------------------------|
G  :-------------------|0---10-12-0-0---0---|12-13-0-0---13-15-0-15-17-0-|
C  :-------------------|0-----------0---0---|--------0-------------------|
                        *           *   *            *                   
D  :-------------------|--------------------|----------------------------|
A  :-------------------|--------------------|----------------------------|
F  :7-10-7---------9---|--------------------|----------------------------|
C  :-------8-0-7-8---8-|--------------------|----------------------------|
G  :-------------------|0---10-12-0-0---0---|12-13-0-0---13-15-0-15-17-0-|
C  :-------------------|0-----------0---0---|--------0-------------------|
                        *           *   *            *
============================================================================
                  
D  :--------------|
A  :--------------|
F  :--------------|
C  :--------------|
G  :0-------------|
C  :0-*-----------|
    *             
D  :--------------|
A  :--------------|
F  :--------------|
C  :--------------|
G  :0-------------|
C  :0-*-----------|
    *

            
            
Suggest correction
Creating personal tab
Creating personal tab
You can edit any tab online and save it as your Personal.

You can edit, replace or remove any tab part or add personal notes – all changes will be seen only by you.

Personal tabs can be accessed anytime from any device, even offline.
Learn more »
Give kudos to tab author, rate the tab!
1 2 3 4 5
comments
print report bad tab
guest
You may want to rate the tab now too:
select rating
Wanna post a correction for this tab? Suggest correction