Oops, an error
Loading. Please wait.

Endorphins Bass Tab

version 1
version 1

Whole song

Interactive

1,381 views 1 this week
no commentswrite comment
1 2 3 4 5
excellent!
x 1
add to favorites
launch autoscroll
font size
0
reset
guitar tuner
Tab Pro tools
  • play this tab
  • loop segment
  • change instrument
  • show fretboard
  • metronome
Autoscroll
slow
fast
+/-
esc
set tempo
stop
Contributor
ENDORPHINS (Bassline)
As recorded by August Burns Red
(From the 2005 Album THRILL SEEKER)


	



Gtr I (C G C F) - 'Dustin'

 Drum Measure
  Q=175
 4/4
  Gtr I
  W
|------|
|------|
|------|
|------|


   Riff A
    Gtr I
    E S S E E E E E Q  E E Q  E Q  E S S E E E E E Q  E E Q  E Q
||----------------------------------------------------------------|
||o---------------------------------------------------------------|
||o-----------------2--2-2-------------------------2--2-2---------|
||--0-0-0-3-0-3-4-0--------3--3-3--0-0-0-3-0-3-4-0--------3--6-6--|


  E S S E E E E E Q  E E Q  E E Q.   Q  E E E Q  E E Q  E Q
|-------------------------------------------------------------||
|------------------------------------------------------------o||
|-----------------2--2-2-------------------------------------o||
|-0-0-0-3-0-3-4-0--------3--3-3-6----6--6-6-6-5--5-5-2--2-2---||


 Extension of Riff A
  E S S E E E E E S S E E E E E E E E S S E E E E E S S E E E E E E E
|----------------------------------------------------------------------|
|----------------------------------------------------------------------|
|----------------------------------------------------------------------|
|-0-0-0-3-0-3-4-0-0-0-3-0-3-4-0-3-4-0-0-0-3-0-3-4-0-0-0-3-0-3-4-0-3-4--|


  E S S E E E E E S S E E E E E E E E S S E E E E E Q  E E Q  E Q
|-------------------------------------------------------------------|
|-------------------------------------------------------------------|
|---------------------------------------------------2--2-2----------|
|-0-0-0-3-0-3-4-0-0-0-3-0-3-4-0-3-4-0-0-0-3-0-3-4-0--------3--3-3---|


  E S S E E E E E Q  E E Q  E Q  E S S E E E E E Q  E E Q  E E  Q.   Q  E E E Q  E E Q  E Q
|-------------------------------------------------------------------------------------------|
|-------------------------------------------------------------------------------------------|
|-----------------2--2-2-------------------------2--2-2-------------------------------------|
|-0-0-0-3-0-3-4-0--------3--6-6--0-0-0-3-0-3-4-0--------3--3-3--6----6--6-6-6-5--5-5-2--2-2-|


   Build Up
    PM------------------------------------------------------------|
    E E E E E E E E E E E E E E E E E E E E E E E E E E E E E E E E  4x
||-------------------------------------------------------------------||
||o-----------------------------------------------------------------o||
||o-----------------------------------------------------------------o||
||--0-0-0-0-0-0-0-0-0-0-0-0-0-0-0-0-0-0-0-0-0-0-0-0-0-0-0-0-0-0-0-0--||


 Riff B/Time Change
  Q=132
  W        W
|---------------|
|---------------|
|---------------|
|---------------|


  Q.   E H    +E  Q  E E Q.   Q.   E H    +E  Q  E E Q.
|---------------------------------------------------------|
|---------------------------------------------------------|
|---------------------------------------------------------|
|-0----0-0----(0)-0--0-0-0----0----0-0----(0)-0--0-0-0----|


    E Q  E E H    E E E E E Q  4x
||-----------------------------||
||o---------------------------o||
||o---------------------------o||
||--0----0-0------0---0-0-0----||


  S S S S S S S S S S S S S S S S S S S S
|-----------------------------------------|
|-----------------------------------------|
|-----------------------------------------|
|-1-1-1-1-1-1-1-1-1-1-1-1-1-1-1-1-1-1-1-1-|


 Riff C/Time Change
  Q=145
  E Q  E E E E E E H    E
|-------------------------|
|-------------------------|
|-------------------------|
|-0----0-4-0-1-3-0--------|


    E. E. E E E Q  E. E. E E E Q  E E E E E E 5x
||--------------------------------------------||
||o------------------------------------------o||
||o------------------------------------------o||
||--0--1--0-4-0----0--1--0-4-0------0-4-0-1-3-||


    E E E E E E E E E E E E E E E E E E E E E E E E E E E E E E E E E E E E E E E E
||-----------------------------------------------------------------------------------||
||o---------------------------------------------------------------------------------o||
||o---------------------------------------------------------------------------------o||
||--0-4-0-1-3-0-4-0-1-3-0-4-0-1-3-0-4-0-1-3-0-4-0-1-3-0-4-0-1-3-0-4-0-1-3-0-4-0-1-3--||


 Breakdown
  q  q  q  q  q  q  q  q  q  q  q  q  q  q  q  q  q  q  q  q
|------------------------------------------------------------|
|------------------------------------------------------------|
|-1--1--1--1--1--1--1--1--1--1-------------------------------|
|-------------------------------0--0--0--0--0--0--0--0--0--0-|


   What Passes For a Solo
    Q.   E E E Q.   E E E Q.   E E E Q.   E E E 3x
||----------------------------------------------||
||o--------------------------------------------o||
||o-1----1-1-1-1----1-1-1----------------------o||
||------------------------0----0-0-0-0----0-0-0-||


  Q.   E E E Q.   E E E Q.   E E E E  Q.
|------------------------------------------|
|------------------------------------------|
|-0----0-0-0-0----0-0-0-0----0-0-0-0-------|
|------------------------------------12\---|


 Riff D/Time Change
  Q=130
  E Q  E Q  E E E Q  E H
|---------------------------|
|---------------------------|
|---------------------------|
|-0----0----0-1-0----0------|


  E Q  E E E Q  E E Q  E E E Q  E H
|--------------------------------------|
|--------------------------------------|
|--------0-----------------------------|
|-0----0---0------0----0-1-0----0------|


    E Q  E E E Q  E E Q  E E E Q  E H    3x
||---------------------------------------||
||o-------------------------------------o||
||o--------0---------------0------------o||
||--0----0---0------0----0---0----0------||


 The End
  E H    E E E
|-----------------|
|-----------------|
|----------0------|
|-0------0---0----|



Duration Legend
---------------
W - whole; H - half; Q - quarter; E - 8th; S - 16th; T - 32nd; X - 64th; a - acciaccatura
+ - note tied to previous; . - note dotted; .. - note double dotted
Uncapitalized letters represent notes that are staccato (1/2 duration)
Irregular groupings are notated above the duration line
Duration letters will always appear directly above the note/fret number it represents the
duration for.  Duration letters with no fret number below them represent rests.  Multi-
bar rests are notated in the form Wxn, where n is the number of bars to rest for.  Low
melody durations appear below the staff

Tablature Legend
----------------
 h   - hammer-on
 p   - pull-off
 b   - bend
 pb  - pre-bend
 r   - bend release (if no number after the r, then release immediately)
 /\  - slide into or out of (from/to "nowhere")
 s   - legato slide
 S   - shift slide
 - natural harmonic
[n]  - artificial harmonic
n(n) - tapped harmonic
 ~   - vibrato
 tr  - trill
 T   - tap
 TP  - trem. picking
 PM  - palm muting
\n/  - tremolo bar dip; n = amount to dip
 \n  - tremolo bar down
 n/  - tremolo bar up
/n\  - tremolo bar inverted dip
 =   - hold bend; also acts as connecting device for hammers/pulls
 <> - volume swell (louder/softer)
 x   - on rhythm slash represents muted slash
 o   - on rhythm slash represents single note slash

Misc Legend
-----------
 |  - bar
||  - double bar
||o - repeat start
o|| - repeat end
*|  - double bar (ending)
 :  - bar (freetime)
 $  - Segno
 &  - Coda
Tempo markers -  = BPM(8/16=s8/s16), where s8 = swing 8ths, s16 = swing 16ths

comments
We did not receive enough feedback on this tab! Please rate:
print report bad tab
1 2 3 4 5
I want to post or [tab]
guest
You may want to rate the tab now too:
select rating
Please do not post tabs as comments. Select "correction" instead!