Oops, an error
Loading. Please wait.

Endorphins Bass Tab

version 2
version 2

Whole song

Interactive

48 views 1 this week
no commentswrite comment
1 2 3 4 5
please rate
add to favorites
launch autoscroll
font size
0
reset
guitar tuner
Autoscroll
slow
fast
+/-
esc
set tempo
stop
Help us to improve Ultimate-Guitar.com Take our survey!
×
Difficulty
Tuning
intermediate
C# G# C# F# A# D#
------------------------------------------------------------------------
Endorphins - August Burns Red
------------------------------------------------------------------------
Tabbed By: John
Email: (NA)

Tuning: Drop C# (C#G#C#F#)
F# |-------|----------------------------------------------------|
C# |-------|----------------------------------------------------|
G# |-------|--------------8-----------8s----9-------------------|
C# |-------|--0--0--0--0--------0-----------------0-----9L------|


----------------------------|
----------------------------|
----------------------------|
--9--9--9--3-----3--3--3----|


----------------------------------------------------|
----------------------------------------------------|
--------------8-----------8s----9-------------------|
--0--0--0--0--------0-----------------0-----9L------|


----------------------------|
----------------------------|
----------------------------|
--9--9--9--3s----6--6--6----|


----------------------------------------------------|
----------------------------------------------------|
--------------8-----------8s----9-------------------|
--0--0--0--0--------0-----------------0-----9L------|


----------------------------|----------------------------|
----------------------------|----------------------------|
----------------------------|----------------------------|
--9--9--9--3-----3--3--3----|--6-----6--6-----6--6--6----|


----------------------------|
----------------------------|
----------------------------|
--5-----5--5--2-----2--2----|


----------------------------------------------------|
----------------------------------------------------|
--------------8-----------8s----9-------------------|
--0--0--0--0--------0-----------------0-----9L------|


----------------------------|
----------------------------|
----------------------------|
--9--9--9--3-----3--3--3----|


----------------------------------------------------|
----------------------------------------------------|
--------------8-----------8s----9-------------------|
--0--0--0--0--------0-----------------0-----9L------|


----------------------------|
----------------------------|
----------------------------|
--9--9--9--3s----6--6--6----|


----------------------------------------------------|
----------------------------------------------------|
--------------8-----------8s----9-------------------|
--0--0--0--0--------0-----------------0-----9L------|


----------------------------|----------------------------|
----------------------------|----------------------------|
----------------------------|----------------------------|
--9--9--9--3-----3--3--3----|--6-----6--6-----6--6--6----|


----------------------------|
----------------------------|
----------------------------|
--5-----5--5--2-----2--2----|


----------------------------------------------------|
----------------------------------------------------|
--------------8-----------8s----9-------------------|
--0--0--0--0--------0-----------------0-----9-------|


----------------------------------------------|
----------------------------------------------|
--8-----------8s----9-----------8s----9-------|
--------0-----------------0--0----------------|


----------------------------------------------------|
----------------------------------------------------|
--------------8-----------8s----9-------------------|
--0--0--0--0--------0-----------------0--0--0--0----|


----------------------------------------------|
----------------------------------------------|
--8-----------8s----9-----------8s----9-------|
--------0-----------------0--0----------------|


----------------------------------------------------|
----------------------------------------------------|
--------------11----------11s---12------------------|
--0--0--0--0--------0-----------------0--0--0--0----|


----------------------------------------------|
----------------------------------------------|
--11----------11s---12----------11s---12------|
--------0-----------------0--0----------------|


----------------------------------------------------|
----------------------------------------------------|
--------------11----------11s---12------------------|
--0--0--0--0--------0-----------------0-----9L------|


----------------------------|
----------------------------|
----------------------------|
--9--9--9--3-----3--3--3----|


----------------------------------------------------|
----------------------------------------------------|
--------------8-----------8s----9-------------------|
--0--0--0--0--------0-----------------0-----9L------|


----------------------------|
----------------------------|
----------------------------|
--9--9--9--3s----6--6--6----|


----------------------------------------------------|
----------------------------------------------------|
--------------8-----------8s----9-------------------|
--0--0--0--0--------0-----------------0-----9L------|


----------------------------|----------------------------|
----------------------------|----------------------------|
----------------------------|----------------------------|
--9--9--9--3-----3--3--3----|--6-----6--6-----6--6--6----|


----------------------------|----------------------------|
----------------------------|----------------------------|
----------------------------|----------------------------|
--5-----5--5--2-----2--2----|--0--0--0--0--0--0--0--0----|


----------------------------|----------------------------|
----------------------------|----------------------------|
--------------------0-------|--------------------0-------|
--0--0--0--0--0--0-----0----|--0--0--0--0--0--0-----0----|


----------------------------|----------------------------|
----------------------------|----------------------------|
--------------------0-------|----------------------------|
--0--0--0--0--0--0-----0----|--0--0--0--0--0--0--0--0----|


----------------------------|----------------------------|
----------------------------|----------------------------|
--------------------0-------|--------------------0-------|
--0--0--0--0--0--0-----0----|--0--0--0--0--0--0-----0----|


----------------------------|----------------------------|
----------------------------|----------------------------|
--------------------0-------|----------------------------|
--0--0--0--0--0--0-----0----|--0--0--0--0--0--0--0--0----|


----------------------------|----------------------------|
----------------------------|----------------------------|
--------------------0-------|--------------------0-------|
--0--0--0--0--0--0-----0----|--0--0--0--0--0--0-----0----|


----------------------------|----------------------------|
----------------------------|----------------------------|
--------------------0-------|----------------------------|
--0--0--0--0--0--0-----0----|--0--0--0--0--0--0--0--0----|


----------------------------|----------------------------|
----------------------------|----------------------------|
--------------------0-------|--------------------0-------|
--0--0--0--0--0--0-----0----|--0--0--0--0--0--0-----0----|


----------------------------|-------|-------|-------|-------|
----------------------------|-------|-------|-------|-------|
--------------------0-------|-------|-------|-------|-------|
--0--0--0--0--0--0-----0----|-------|-------|-------|-------|


----------------------------|----------------------------|
----------------------------|----------------------------|
----------------------------|----------------------------|
--5L-5L-5L-5L-5L-5M-5L-5M---|--5L-5L-5L-5L-5L-5L-5L-5L---|


----------------------------|----------------------------|
----------------------------|----------------------------|
----------------------------|----------------------------|
--5L-5M-5L-5L-5L-5M-5L-5M---|--5L-5M-5L-5L-5L-5L-5L-5M---|


----------------------------|----------------------------|
----------------------------|----------------------------|
----------------------------|----------------------------|
--5L-5L-5L-5L-5L-5M-5L-5M---|--5L-5L-5L-5L-5L-5L-5L-5L---|


----------------------------|----------------------------|----------------|
----------------------------|----------------------------|----------------|
----------------------------|----------------------------|----------------|
--5L-5M-5L-5L-5L-5M-5L-5M---|--5L-5M-5L-5L-5L-5L-5L-5M---|--0--------0----|


----------------|----------------|----------------|----------------|
----------------|----------------|----------------|----------------|
----------------|----------------|----------------|----------------|
--0-------------|-----0-----0----|--0--0----------|--0--------0----|


----------------|----------------|----------------|----------------|
----------------|----------------|----------------|----------------|
----------------|----------------|----------------|----------------|
--0-------------|-----0-----0----|--0--0----------|--0--------0----|


----------------|----------------|----------------|----------------|
----------------|----------------|----------------|----------------|
----------------|----------------|----------------|----------------|
--0-------------|-----0-----0----|--0--0----------|--0--------0----|


----------------|----------------|----------------|----------------|
----------------|----------------|----------------|----------------|
----------------|----------------|----------------|----------------|
--0-------------|-----0-----0----|--0--0----------|----------------|


----------------|----------|----------------------------|----------------------|
----------------|----------|----------------------------|----------------------|
----------------|----------|----------------------------|----------------------|
----------------|----------|--0--------0M-1M-0M-3M-4M---|--0-------------------|


----------------------------------------------------|
----------------------------------------------------|
----------------------------------------------------|
--0M-------1M-------0M----4M----3-------------------|


----------------------------------------------------|----------------------|
----------------------------------------------------|----------------------|
----------------------------------------------------|----------------------|
--0M-------1M-------0M----4M----3-------------------|-----0M-3M-1M-0M-1M---|


----------------------------------------------------|
----------------------------------------------------|
----------------------------------------------------|
--0M-------1M-------0M----4M----3-------------------|


----------------------------------------------------|----------------------|
----------------------------------------------------|----------------------|
----------------------------------------------------|----------------------|
--0M-------1M-------0M----4M----3-------------------|-----0M-3M-1M-0M-1M---|


----------------------------------------------------|
----------------------------------------------------|
----------------------------------------------------|
--0M-------1M-------0M----4M----3-------------------|


----------------------------------------------------|----------------------|
----------------------------------------------------|----------------------|
----------------------------------------------------|----------------------|
--0M-------1M-------0M----4M----3-------------------|-----0M-3M-1M-0M-1M---|


----------------------------------------------------|
----------------------------------------------------|
----------------------------------------------------|
--0M-------1M-------0M----4M----3-------------------|


----------------------------------------------------|----------------------|
----------------------------------------------------|----------------------|
----------------------------------------------------|----------------------|
--0M-------1M-------0M----4M----3-------------------|-----0M-3M-1M-0M-1M---|


----------------------------------------------------|
----------------------------------------------------|
----------------------------------------------------|
--0M-------1M-------0M----4M----3-------------------|


----------------------------------------------------|----------------------|
----------------------------------------------------|----------------------|
----------------------------------------------------|----------------------|
--0M-------1M-------0M----4M----3-------------------|-----0M-3M-1M-0M-1M---|


-------------------|-------------------|-------------------|-------------------|
-------------------|-------------------|-------------------|-------------------|
-------------------|-------------------|-------------------|-------------------|
--0M-1M-0M-4M-3M---|--0M-3M-1M-0M-1----|--0M-1M-0M-4M-3M---|--0M-3M-1M-0M-1----|


-------------------|-------------------|-------------------|-------------------|
-------------------|-------------------|-------------------|-------------------|
-------------------|-------------------|-------------------|-------------------|
--0M-1M-0M-4M-3M---|--0M-3M-1M-0M-1----|--0M-1M-0M-4M-3M---|--0M-3M-1M-0M-1----|


-------------------|-------------------|-------------------|-------------------|
-------------------|-------------------|-------------------|-------------------|
-------------------|-------------------|-------------------|-------------------|
--0M-1M-0M-4M-3M---|--0M-3M-1M-0M-1----|--0M-1M-0M-4M-3M---|--0M-3M-1M-0M-1----|


-------------------|-------------------|-------------------|-------------------|
-------------------|-------------------|-------------------|-------------------|
-------------------|-------------------|-------------------|-------------------|
--0M-1M-0M-4M-3M---|--0M-3M-1M-0M-1----|--0M-1M-0M-4M-3M---|--0M-3M-1M-0M-1----|


-------------------|-------------------|-------------------|-------------------|
-------------------|-------------------|-------------------|-------------------|
-------------------|-------------------|-------------------|-------------------|
--0M-1M-0M-4M-3M---|--0M-3M-1M-0M-1----|--0M-1M-0M-4M-3M---|--0M-3M-1M-0M-1----|


-------------------|-------------------|-------------------|-------------------|
-------------------|-------------------|-------------------|-------------------|
-------------------|-------------------|-------------------|-------------------|
--0M-1M-0M-4M-3M---|--0M-3M-1M-0M-1----|--0M-1M-0M-4M-3M---|--0M-3M-1M-0M-1----|


----------------------|----------------------------------------|
----------------------|----------------------------------------|
----------------------|----------------------------------------|
--3L----3--2L----2----|--0--0--0--0--0--0--2--2--3--3--5--5----|


----------------------|----------------------------------------|
----------------------|----------------------------------------|
----------------------|----------------------------------------|
--3L----3--2L----2----|--0--0--0--0--0--0--2--2--3--3--5--5----|


----------------------|----------------------------------------|
----------------------|----------------------------------------|
----------------------|----------------------------------------|
--3L----3--2L----2----|--0--0--0--0--0--0--2--2--3--3--5--5----|


----------------------------------------------------------------------------|
----------------------------------------------------------------------------|
--4--4--4--4--4--4--4--4--4--4--4--4--4--4--4--4--4--4--4--4--4--4--4--4----|
----------------------------------------------------------------------------|


----------------------------------------------------------------------------|
----------------------------------------------------------------------------|
--7--7--7--7--7--7--7--7--7--7--7--7--7-------------------------------------|
----------------------------------------------------------------------------|


----------------------------------------|----------------------------------|
----------------------------------------|----------------------------------|
----------------------------------------|----------------------------------|
--0--------0M-------0M-6M-0M-------0----|--------------0M-------0M-6M-0M---|


----------------------------------------|----------------------------------|
----------------------------------------|----------------------------------|
----------------------------------------|----------------------------------|
--0--------0M-------0M-6M-0M-------0----|--------------0M-------0M-6M-0M---|


----------------------------------------|----------------------------------|
----------------------------------------|----------------------------------|
----------------------------------------|----------------------------------|
--0--------0M-------0M-6M-0M-------0----|--------------0M-------0M-6M-0M---|


----------------------------------------|----------------------------------|
----------------------------------------|----------------------------------|
----------------------------------------|----------------------------------|
--0--------0M-------0M-6M-0M-------0----|--------------0M-------0M-6M-0M---|


----------------------------------------|----------------------------------|
----------------------------------------|----------------------------------|
----------------------------------------|----------------------------------|
--0--------0M-------0M-6M-0M-------0----|--------------0M-------0M-6M-0M---|


----------------------------------------|----------------------------------|
----------------------------------------|----------------------------------|
----------------------------------------|----------------------------------|
--0--------0M-------0M-6M-0M-------0----|--------------0M------------------|


----------------------------------------|----|----||
----------------------------------------|----|----||
----------------------------------------|----|----||
--0--6--0-------------------------------|----|----||

************************************
Legend
L - tied note
x - dead note
h - hammer on/pull off
b - bend
s - slide
~ - vibrato
g - ghost note
> - accentuated note
t - trill
M - palm mute
. - staccato
P - popping (bass)
S - slapping (bass)
+ - tapping
W - wide vibrato
< - fade in
w - whammy bar
= - tremolo picking
v - brush up
^ - brush down
V - pick stroke up
n - pick stroke down
*********************************
Suggest correction
What's this?
You can suggest a correction to this tab. Community and Mods will review your correction and vote to approve or reject it.
comments
We did not receive enough feedback on this tab! Please rate:
print report bad tab
1 2 3 4 5
guest
You may want to rate the tab now too:
select rating
Please do not post tabs as comments. Select "correction" instead!