Oops, an error
Loading. Please wait.

Identity tab

version 2
version 2

Whole song

Interactive

7,015 views 27 this week
no commentswrite comment
1 2 3 4 5
x 8
add to favorites
×
Save as Personal and add changes to this tab that will be seen only by you. Learn more ›
×
You can save this tab as Personal to edit and correct it or add notes. All changes will be seen only by you. Learn more »
launch autoscroll
font size
0
reset
how to read this tab
guitar tuner
edit
Autoscroll
slow
fast
+/-
esc
set tempo
stop
[Identity]
[August Burns Red]
[Found In Far Away Places]

Tuning: CGCFAD (Drop C)
joshuaoliveira@hotmail.com


[Riff 1a] - [00:00] - [00:27]
- -----------------------------------------------------------------|
- -------------------------------3~--------------12~---------------|
- -------------------------------2~--------------11~---------------|
- -7~----------6-4~------11~-\---0~--------------9~----------------|
- -4~----------2-4~------7~--\---0~--------------9~----------------|
- -4~----------2-4~------7~--\---0~--------------9~----------------|

- -----------------------------------------------------------------|
- -------------------------------3~--------------12~---------------|
- -------------------------------2~--------------11~---------------|
- -7~----------6-4~------11~-\---0~--------------9~----------------|
- -4~----------2-4~------7~--\---0~--------------9~----------------|
- -4~----------2-4~------7~--\---0~--------------9~----------------|

- -----------------------------------------------------------------|
- -----------------------------------------3-----------------------|
- -----------------------------------------2-----------------------|
- ---------4---------------7---------------0---------------4-------|
- -4-4-4-4-4-4-4-2-4-4-4-4-7-7-7-7-0-0-0-0-0-0-0-0-2-2-2-2-2-2-2-2-|
- -4-4-4-4-4-4-4-2-4-4-4-4-7-7-7-7-0-0-0-0-0-0-0-0-4-4-4-4-4-4-4-4-|
PM ...............................................................

- -----------------------------------------------------------------|
- -----------------------------------------3-----------------------|
- -----------------------------------------2-----------------------|
- ---------4---------------7---------------0---------------4-------|
- -4-4-4-4-4-4-4-2-4-4-4-4-7-7-7-7-0-0-0-0-0-0-0-0-2-2-2-2-2-2-2-2-|
- -4-4-4-4-4-4-4-2-4-4-4-4-7-7-7-7-0-0-0-0-0-0-0-0-4-4-4-4-4-4-4-4-|
PM ...............................................................

[Riff 1b] - [00:07] - [00:30]
- -----------------------------------------------------------------|
- -----------------5v------7---------------------------------------|
- ---------------------------7-6---6-7v------------6-brbrb-----6---|
- -7v------\---4/6-----------------------------------------------9-|
- -----------------------------------------------------------------|
- -----------------------------------------------------------------|

- -----------------------------------------------------------------|
- -----------------5v------7-----------------------7---------------|
- ---------------------------7-6---6-7v--------------7-6-7-6---6-9-|
- -7v------\---4/6-------------------------------------------9-----|
- -----------------------------------------------------------------|
- -----------------------------------------------------------------|

- -------------------------------------------------9-7-5-7-5---5-------------------|
- -----------------5v------7---------------------------------9---7-----------------|
- ---------------------------7-6---6-7v----------------------------6~--------------|
- -7v------\---4/6-----------------------------------------------------------------|
- ---------------------------------------------------------------------------------|
- ---------------------------------------------------------------------------------|

harmony guitar, third time through

- --------------------------------------------------12-10-9-10-9----9--------------|
- ---------------10-9v-----10------------------------------------12---10-----------|
- ----------------------------11-9---9-11v-------------------------------11~-------|
- -11v-----\---7-------------------------------------------------------------------|
- ---------------------------------------------------------------------------------|
- ---------------------------------------------------------------------------------|


[Riff 2, Guitar 1 & 2] - [00:27] - [00:40]
- ---------------------------------------------------------------------------------------------------|
- ---------------------------------------------------------------------------------------------------|
- ---------------------------------------------------------------------------------------------------|
- -4---------------------------------7---4-----4---------------11p0------9h12---11---11p9p0----------|
- -4-----------------------------00007---4-00004-0000---------------9h12--------------------12p0-7p0-|
- -4-----------------------------00007---4-00004-0000-7h11p7p0----------------0----0-----------------|
PM                               ....      ....  ....                         .    .
- ---------------------------------------------------------------------------------------------------|
- ---------------------------------------------------------------------------------------------------|
- ---------------------------------------------------------------------------------------------------|
- -4-----4---------------4-----4-----7---4-----4---------------11p0------9h12---11---11p9p0----------|
- -4-00004-0000----------4-00004-00007---4-00004-0000---------------9h12--------------------12p0-7p0-|
- -4-00004-0000-7h11p7p0-4-00004-00007---4-00004-0000-7h11p7p0----------------0----0-----------------|
PM   ....  ....            ....  ....      ....  ....                         .    .


- ---------------------------------------------------------------------------------------------------|
- ---------------------------------------------------------------------------------------------------|
- ---------------------------------------------------------------------------------------------------|
- -4-----4---------------4-----4-----7---4-----4-----------------------------------------------------|
- -4-00004-0000----------4-00004-00007---4-00004-0000------------------------------------------------|
- -4-00004-0000-7h11p7p0-4-00004-00007---4-00004-0000-7h11p7p0-12-12-11-11-9-9-11-11-9-9-7-7-9-9-6-6-|
PM   ....  ....            ....  ....      ....  ....          .....................................
- ---------------------------------------------------------------------------------------------------|
- ---------------------------------------------------------------------------------------------------|
- ---------------------------------------------------------------------------------------------------|
- -4-----4---------------4-----4-----7---4-----4-----------------------------------------------------|
- -4-00004-0000----------4-00004-00007---4-00004-0000------------------------------------------------|
- -4-00004-0000-7h11p7p0-4-00004-00007---4-00004-0000-7h11p7p0-12-12-11-11-9-9-11-11-9-9-7-7-9-9-6-6-|
PM   ....  ....            ....  ....      ....  ....          .....................................


[Riff 3a] - [00:40] - [00:53]
- ---------------------------------------------------------------------------------------|
- ---------------------------------------------------------------------------------------|
- ---------------------------------------------------------------------------------------|
- -4-----4---------4-----4-----7-2-4-----4---------11p0------9h12---11---11p9p0----------|
- -4-00004-00000---4-00004-00007-2-4-00004-00000--------9h12--------------------12p0-7p0-|
- -4-00004-00000---4-00004-00007-2-4-00004-00000------------------0----0-----------------|
PM   ....  .....     ....  ....      ....  .....                  .    .

- -----------------------------------------------------------------|
- ---------------------------------------------------------6-6-6---|
- ---------------------------------------------------------7-7-7---|
- -4-----4---------4-----4-----7-2-4-----4-----------------7-7-7---|
- -4-00004-00000---4-00004-00007-2-4-00004-00000---0-0-0-0-5-5-5---|
- -4-00004-00000---4-00004-00007-2-4-00004-00000---0-0-0-0---------|
PM   ....  .....     ....  ....      ....  ...............

[Riff 3b] - [00:47] - [00:53]
- -----------------------------------------------------------------|
- -----------------------------------------------------------------|
- -----------------------------------------------------------------|
- -7-7-4-4-0-0-7-7-4-4-0-0-7-7-4-4-7-7-4-4-0-0-7-7-4-4-0-0-7-7-4-4-|
- -----------------------------------------------------------------|
- -----------------------------------------------------------------|
PM ...............................................................

- ---------------------------------------------------------10-10-10\--|
- --------------------------------------------------------------------|
- ---------------------------------------10-10-9-9-7-7-9-9------------|
- -11-11-7-7-0-0-11-11-7-7-0-0-11-11-7-7------------------------------|
- --------------------------------------------------------------------|
- --------------------------------------------------------------------|
PM .....................................


[Riff 4a] - [00:53] - [01:20]
- ---------------------------------------------------------------------------|
- -------------------------------------------------------------7------6------|
- ---------------------------4---------------------------------7------7------|
- -11-(x16)-11-(x16)-7-(x16)-7-(x16)-11-(x16)-11-(x16)-7-(x16)-7-(x8)-7-(x8)-|
- -7--------9--------4-------5-------7--------9--------4-------5------5------|
- -7--------9--------4---------------7--------9--------4---------------------|

[Riff 4b] - [00:53] - [01:20]
- ----------------------------------------------------------------------------------|
- -----10/12-9h10p9-10/14---15-14----------------17v----------12/14v-------14v------|
- -6/9----------------------------14-------18-19------------------------------------|
- -----------------------------------16/19------------------------------------------|
- ----------------------------------------------------------------------------------|
- ----------------------------------------------------------------------------------|

- ---------------------------------------------------------------------12-----------|
- ------------------------------------9h10-10br------------------10-------14brbr\---|
- -----------------------9----------9-----------11-9---11---9-11----11--------------|
- -12-11-------------------12-11-12-------------------------------------------------|
- ---------12---9---12--------------------------------------------------------------|
- ----------------------------------------------------------------------------------|

- -------------12-------------------12\10----10/14-17-14-------22-21----17---------------|
- -14br--12-------14-12-14br--12----------14-------------17/19-------19----19-17v---15v--|
- ----------14-------------------14------------------------------------------------------|
- ---------------------------------------------------------------------------------------|
- ---------------------------------------------------------------------------------------|
- ---------------------------------------------------------------------------------------|

- -------------12-------------------12\10----10-------------------------------17p13----13-----|
- -14br--12-------14-12-14br--12----------14----14-10-------------14h15-14h15-------17----15\-|
- ----------14-------------------14-------------------------14h16-----------------------------|
- ----------------------------------------------------14/15-----------------------------------|
- --------------------------------------------------------------------------------------------|
- --------------------------------------------------------------------------------------------|

[Riff 5a] - [01:20] - [01:45]
- -------------------------------------------------------------|
- -------------------------------------------------------------|
- -------------------------------------------------------------|
- ---------7---------------7-----------7---------------7---0-2-|
- -44442-4-7-4-2-4---442-4-7-2-44442-4-7-4-2-4---442-4-7-000-2-|
- -44442-4-7-4-2-4---442-4-7-2-44442-4-7-4-2-4---442-4-7-000-2-|
PM .......   .............   .........   .............   ..

[Riff 5b, Guitar 1 & 2] - [01:32] - [01:45]
- ---------------------------------------------------14---10--------|
- -14br-----------------14b-----14br---------------------------14---|
- ---------11br-9/11~-------------------11br-9/11~------------------|
- ------------------------------------------------------------------|
- ------------------------------------------------------------------|
- ------------------------------------------------------------------|
-
- ------------------------------------------------------------------|
- ------------------------------------------------------------------|
- ------------------------------------------------------------------|
- ------------------------------------------------------------------|
- ------------------------------------------------------------------|
- ------------------------------------------------------------------|


- ---------------------------------------------------14---10---16---|
- -14br-----------------14b-----14br--------------------------------|
- ---------11br-9/11~-------------------11br-9/11~------------------|
- ------------------------------------------------------------------|
- ------------------------------------------------------------------|
- ------------------------------------------------------------------|
-
- ---------------------------------------------------10---7----12---|
- -10br----10---9-10~---10b-----10br----10---9-10~------------------|
- ------------------------------------------------------------------|
- ------------------------------------------------------------------|
- ------------------------------------------------------------------|
- ------------------------------------------------------------------|

clean

[Riff 6a] - [01:45] - [02:09-----------------------------------------| - [x4]
- ---------------------------------2~--------------------------------|
- -7w\-------w/--------------------3~--------------12~---------------|
- -6w\-------w/--------------------2~--------------11~---------------|
- -4w\-------w/--------------------0~--------------9~----------------|
- -4w\-------w/--------------------0~--------------9~----------------|
- -4w\-------w/--------------------0~--------------9~----------------|

[Riff 6b] - [01:51] - [02:09-----------------------------------------------| - [x3]
- ------------------------------------------------------------------|------|
- ------------------------------------------------------------------|------|
- ------------------------------------------------------------------|------| distortion guitar
- ------------------------------------------------------------------|------| slides down before
- ------------------------------------------------------------------|-17\--| section ends
- -4-444-4-444-2-2-4-444-4-7-777-7-0-000-0-000-0-0-9-999-9-999-9-9--|------|

distortion

[Riff 7a] - [02:09] - [02:33]
- -----------------------------------------------------------------|
- ---------------------------------------3---3-3-3-----------------|
- ---------------------------------------2---2-2-2-----------------|
- -4-4-4-4-4-4-2-2-4-4-4-4-7-7-7-7-------0---0-0-0-4-4-4-4-4-4-4-4-|
- -4-4-4-4-4-4-2-2-4-4-4-4-7-7-7-7-0-0-0-0---0-0-0-2-2-2-2-2-2-2-2-|
- -4-4-4-4-4-4-2-2-4-4-4-4-7-7-7-7-0-0-0-0---0-0-0-----------------|
PM                                 .....

- -----------------------------------------------------------------|
- ---------------------------------------3---3-3-3-----------------|
- ---------------------------------------2---2-2-2-----------------|
- -4-4-4-4-4-4-2-2-4-4-4-4-7-7-7-7-------0---0-0-0-4-4-4-4-4-4-4-4-|
- -4-4-4-4-4-4-2-2-4-4-4-4-7-7-7-7-0-0-0-0---0-0-0-2-2-2-2-2-2-2-2-|
- -4-4-4-4-4-4-2-2-4-4-4-4-7-7-7-7-0-0-0-0---0-0-0-----------------|
PM                                 .....

- ---------------------------------5-5-5-5-5-5-5-5-2-2-2-2-2-2-2-2-|
- ---------------------------------3-3-3-3-3-3-3-3-3-3-3-3-3-3-3-3-|
- ---------------------------------2-2-2-2-2-2-2-2-4-4-4-4-4-4-4-4-|
- -7-7-7-7-7-7-6-6-4-4-4-4-111111110-0-0-0-0-0-0-0-4-4-4-4-4-4-4-4-|
- -4-4-4-4-4-4-2-2-4-4-4-4-7-7-7-7-0-0-0-0-0-0-0-0-2-2-2-2-2-2-2-2-|
- -4-4-4-4-4-4-2-2-4-4-4-4-7-7-7-7-0-0-0-0-0-0-0-0-----------------|

- ---------------------------------5-5-5-5-5-5-5-5-2-2-2-2-2-2-2-2-|
- ---------------------------------3-3-3-3-3-3-3-3-3-3-3-3-3-3-3-3-|
- ---------------------------------2-2-2-2-2-2-2-2-4-4-4-4-4-4-4-4-|
- -7-7-7-7-7-7-6-6-4-4-4-4-111111110-0-0-0-0-0-0-0-4-4-4-4-4-4-4-4-|
- -4-4-4-4-4-4-2-2-4-4-4-4-7-7-7-7-0-0-0-0-0-0-0-0-2-2-2-2-2-2-2-2-|
- -4-4-4-4-4-4-2-2-4-4-4-4-7-7-7-7-0-0-0-0-0-0-0-0-----------------|

[Riff 7b] - [02:09] - [02:33]
- -----------------------------------------------------------------------------9-------9--------|
- -------------10v--------------10h12-12p10------[12]p10----[12]p10----[12]p10-12b-----12br--12-|
- --------9-11-------------9-11-------------11-9---------11---------11--------------------------|
- ---9h11-------------9h11----------------------------------------------------------------------|
- ----------------------------------------------------------------------------------------------|
- ----------------------------------------------------------------------------------------------|

- ------------------12-14p12h14-17v---17h19-19b-----19b-----24-21-20-19~---\---|
- -10v-----12-13/14------------------------------------------------------------|
- -----------------------------------------------------------------------------|
- -----------------------------------------------------------------------------|
- -----------------------------------------------------------------------------|
- -----------------------------------------------------------------------------|

- ----------12-------------12-12----------------12-121212------------------------------------|
- ----14-------14----14-------------15----14br------------15-151515-14-14---------22v--------|
- -11----11-------11----11-------11----11---------------------------------11/19v--------19v--|
- -------------------------------------------------------------------------------------------|
- -------------------------------------------------------------------------------------------|
- -------------------------------------------------------------------------------------------|
PM ..    ..       ..    ..       ..

- ----------------------------------------17h19-19b-----19b-----19v------19---17-16----------|
- -17/19-19-19-17/19-19-19-19v--18-17v----------------------------------------------19v------|
- -16/18-18-18-16/18-18-18-18v--17-16v-------------------------------------------------------|
- -------------------------------------------------------------------------------------------|
- -------------------------------------------------------------------------------------------|
- -------------------------------------------------------------------------------------------|


[Riff 8, Guitar 1 & 2] - [02:33] - [02:46]
- ---------------------------------------------------------------------------------------------------|
- ---------------------------------------------------------------------------------------------------|
- ---------------------------------------------------------------------------------------------------|
- -4-----4---------------4-----4-----7---4-----4-----------------------------------------------------|
- -4-00004-0000----------4-00004-00007---4-00004-0000------------------------------------------------|
- -4-00004-0000-7h11p7p0-4-00004-00007---4-00004-0000-7h11p7p0-12-12-11-11-9-9-11-11-9-9-7-7-9-9-6-6-|
PM   ....  ....            ....  ....      ....  ....          .....................................
- ---------------------------------------------------------------------------------------------------|
- ---------------------------------------------------------------------------------------------------|
- ---------------------------------------------------------------------------------------------------|
- -4-----4---------------4-----4-----7---4-----4-----------------------------------------------------|
- -4-00004-0000----------4-00004-00007---4-00004-0000------------------------------------------------|
- -4-00004-0000-7h11p7p0-4-00004-00007---4-00004-0000-7h11p7p0-12-12-11-11-9-9-11-11-9-9-7-7-9-9-6-6-|
PM   ....  ....            ....  ....      ....  ....          .....................................


- ------------------------------------------------------------------------------------------------|
- ------------------------------------------------------------------------------------------------|
- ------------------------------------------------------------------------------------------------|
- -4-----4---------------4-----4-----7---4-----4---------------9p0--7p0--6p0-7p0--6p0-4p0-6p0-2p0-|
- -4-00004-0000----------4-00004-00007---4-00004-0000---------------------------------------------|
- -4-00004-0000-7h11p7p0-4-00004-00007---4-00004-0000-7h11p7p0------------------------------------|
PM   ....  ....            ....  ....      ....  ....
- ------------------------------------------------------------------------------------------------|
- ------------------------------------------------------------------------------------------------|
- ------------------------------------------------------------------------------------------------|
- -4-----4---------------4-----4-----7---4-----4---------------12p0-11p0-9p0-11p0-9p0-7p0-9p0-6p0-|
- -4-00004-0000----------4-00004-00007---4-00004-0000---------------------------------------------|
- -4-00004-0000-7h11p7p0-4-00004-00007---4-00004-0000-7h11p7p0------------------------------------|
PM   ....  ....            ....  ....      ....  ....


[Riff 10a] - [02:46] - [03:13]
- -----------------------------------------------------------------|
- -----------------------------------------------------------------|
- -----------------------------------------------------------------|
- -4-----------------------------7-4---------------------------7-2-|
- -4-0000--00000000--0000----00007-4-0000--00000000--0000----007-2-|
- -4-0000--00000000--0000----00007-4-0000--00000000--0000----007-2-|
PM   ............................    ..........................

- ------------------------------------------------------------------------------------|
- ------------------------------------------------------------------------------------|
- ------------------------------------------------------------------------------------|
- -4-----------------------------7-4-----------------11p0------9h12---11---11p9p0-7-2-|
- -4-0000--00000000--0000----00007-4-0000--00000000-------9h12--------------------7-2-|
- -4-0000--00000000--0000----00007-4-0000--00000000-----------------0----0--------7-2-|
PM   ............................    ..............                 .    .

- -----------------------------------------------------------------|
- -----------------------------------------------------------------|
- -----------------------------------------------------------------|
- -4-----------------------------7-4---------------------------7-2-|
- -4-0000--00000000--0000----00007-4-0000--00000000--0000----007-2-|
- -4-0000--00000000--0000----00007-4-0000--00000000--0000----007-2-|
PM   ............................    ..........................

- -----------------------------------------------------------------|
- -----------------------------------------------------------------|
- -----------------------------------------------------------------|
- -4-----------------------------7-4---------------------7-7-7-7---|
- -4-0000--00000000--0000----00007-4-0000--00000000--00007-5-5-5---|
- -4-0000--00000000--0000----00007-4-0000--00000000--00007---------|
PM   ............................    ....................

[Riff 10b] - [02:59] - [03:13]
   T           T           T           T           T           T           T           T
- -17p14p10h14-17p14p10h14-17p14p10h14-17p14p10h14-17p14p10h14-17p14p10h14-21p14p12h14-19p14p12h14-|
- -------------------------------------------------------------------------------------------------|
- -------------------------------------------------------------------------------------------------|
- -------------------------------------------------------------------------------------------------|
- -------------------------------------------------------------------------------------------------|
- -------------------------------------------------------------------------------------------------|
   T           T           T           T           T           T           T           T
- -17p14p10h14-17p14p10h14-17p14p10h14-17p14p10----------------------------17p12p10h12-17p12p10h12-|
- ---------------------------------------------h14-19p14p10h14-19p14p10h14-------------------------|
- -------------------------------------------------------------------------------------------------|
- -------------------------------------------------------------------------------------------------|
- -------------------------------------------------------------------------------------------------|
- -------------------------------------------------------------------------------------------------|
   T           T           T           T           T           T           T           T
- -17p14p10h14-17p14p10h14-17p14p10h14-17p14p10h14-17p14p10h14-17p14p10h14-21p14p12h14-19p14p12h14-|
- -------------------------------------------------------------------------------------------------|
- -------------------------------------------------------------------------------------------------|
- -------------------------------------------------------------------------------------------------|
- -------------------------------------------------------------------------------------------------|
- -------------------------------------------------------------------------------------------------|
   T           T           T           T           T           T           T           T
- -17p14p10h14-17p14p10h14-17p14p10h14-17p14p10h14-17p13p10h13-17p13p10h13-22p13p10h13-19p13p10h13-|
- -------------------------------------------------------------------------------------------------|
- -------------------------------------------------------------------------------------------------|
- -------------------------------------------------------------------------------------------------|
- -------------------------------------------------------------------------------------------------|
- -------------------------------------------------------------------------------------------------|

[Riff 11] - [03:13] - [04:21]
- ---------------------------------5-5-5-5-5-5-5-5-2-2-2-2-2-2-2-2-|
- ---------------------------------3-3-3-3-3-3-3-3-3-3-3-3-3-3-3-3-|
- ---------------------------------2-2-2-2-2-2-2-2-4-4-4-4-4-4-4-4-| main strum pattern
- -7-7-7-7-7-7-7-6-4-4-4-4-111111110-0-0-0-0-0-0-0-4-4-4-4-4-4-4-4-|
- -4-4-4-4-4-4-4-2-4-4-4-4-7-7-7-7-0-0-0-0-0-0-0-0-2-2-2-2-2-2-2-2-|
- -4-4-4-4-4-4-4-2-4-4-4-4-7-7-7-7-0-0-0-0-0-0-0-0-----------------|

- ---------------------------------5-5-5-5-5-5-5-5-2-2-2-2-2-------|
- ---------------------------------3-3-3-3-3-3-3-3-3-3-3-3-3-------|
- ---------------------------------2-2-2-2-2-2-2-2-4-4-4-4-4-------| end of string section
- -7-7-7-7-7-7-7-6-4-4-4-4-111111110-0-0-0-0-0-0-0-4-4-4-4-4-------|
- -4-4-4-4-4-4-4-2-4-4-4-4-7-7-7-7-0-0-0-0-0-0-0-0-2-2-2-2-2-------|
- -4-4-4-4-4-4-4-2-4-4-4-4-7-7-7-7-0-0-0-0-0-0-0-0-----------------|

- -----------------------------------------5-5-5-5-2-2-2-2-2-2-2-2---------|
- -----------------------------------------3-3-3-3-3-3-3-3-3-3-3-3---------|
- -----------------------------------------2-2-2-2-4-4-4-4-4-4-4-4---------| last play through
- -7-7-7-7-7-7-7-6-4-4-4-4-11111111--------0-0-0-0-4-4-4-4-4-4-4-4-4~------|
- -4-4-4-4-4-4-4-2-4-4-4-4-7-7-7-7-0-0-0-0-0-0-0-0-2-2-2-2-2-2-2-2-4~------|
- -4-4-4-4-4-4-4-2-4-4-4-4-7-7-7-7-0-0-0-0-0-0-0-0-----------------4~------|
PM                                 .......

[Riff 12a] - [03:41] - [04:21]
- -------------------12v-----14------------------------------------------------|
- ------------------------------15-14---14-15v------------14brbrb--------14-12-|
- -14v-----\---11-13-----------------------------------------------------------|
- -----------------------------------------------------------------------------|
- -----------------------------------------------------------------------------|
- -----------------------------------------------------------------------------|
-
- -----------------------------------------------------------------------------|
- -----------------------------------------------------------------------------|
- -----------------------------------------------------------------------------|
- -----------------------------------------------------------------------------|
- -----------------------------------------------------------------------------|
- -----------------------------------------------------------------------------|


- -------------------12v-----14---------------------------14----------------12-|
- ------------------------------15-14---14-15v---------------15-14br--12-14----|
- -14v-----\---11-13-----------------------------------------------------------|
- -----------------------------------------------------------------------------|
- -----------------------------------------------------------------------------|
- -----------------------------------------------------------------------------|
-
- -----------------------------------------------------------------------------|
- -----------------------------------------------------------------------------|
- -----------------------------------------------------------------------------|
- -----------------------------------------------------------------------------|
- -----------------------------------------------------------------------------|
- -----------------------------------------------------------------------------|


- -------------------12v-----14------------------------------------------------|
- ------------------------------15-14---14-15v------------14brbrb--------14-12-|
- -14v-----\---11-13-----------------------------------------------------------|
- -----------------------------------------------------------------------------|
- -----------------------------------------------------------------------------|
- -----------------------------------------------------------------------------|
-
- -------------------9v------10------------------------------------------------|
- ------------------------------12-10---10-12v------------10brbrb--------10-9--|
- -11v-----\---6-/9------------------------------------------------------------|
- -----------------------------------------------------------------------------|
- -----------------------------------------------------------------------------|
- -----------------------------------------------------------------------------|


- -------------------12v-----14---------------------------14--------------------------------------|
- ------------------------------15-14---14-15v---------------15-14-15-14-12-14--------------------|
- -14v-----\---11-13-----------------------------------------------------------14-11~-------------|
- ------------------------------------------------------------------------------------------------|
- ------------------------------------------------------------------------------------------------|
- ------------------------------------------------------------------------------------------------|
-
- -------------------9v------10---------------------------10--------------------------------------|
- ------------------------------12-10---10-12v---------------12-10-12-10-9--10--------------------|
- -11v-----\---6-/9------------------------------------------------------------11-6~--------------|
- ------------------------------------------------------------------------------------------------|
- ------------------------------------------------------------------------------------------------|
- ------------------------------------------------------------------------------------------------|

[Symbols]

PM... Palm Mute notes with (...) under them
AP... Alternate Pick notes with (...) under them
h     Hammer On
p     Pull Off
v     Vibrato (Small Bends)
[ ]   Harmonic
/     Slide Up
\     Slide Down
x     Dead Note
b     Bend
p     Pre-Bend
r     Release Bend
(x )  Play Notes x amount of times
~     Let Ring
/ 3 \ Notes are triplets (3 notes in the space of two)
w\    Whammy bar down
w/    Whammy Bar Up
T     Right Hand Tapping

:)

            
            
Suggest correction
Creating personal tab
Creating personal tab
You can edit any tab online and save it as your Personal.

You can edit, replace or remove any tab part or add personal notes – all changes will be seen only by you.

Personal tabs can be accessed anytime from any device, even offline.
Learn more »
comments
print report bad tab
guest
You may want to rate the tab now too:
select rating
Wanna post a correction for this tab? Suggest correction