Oops, an error
Loading. Please wait.

Indonesia Tab

version 1
version 1

Whole song

Interactive

20,154 views 18 this week
1 commentread comment
1 2 3 4 5
excellent!
x 11
add to favorites
launch autoscroll
font size
0
reset
how to read this tab
guitar tuner
Autoscroll
slow
fast
+/-
esc
set tempo
stop
Help us to improve Ultimate-Guitar.com Take our survey!
×
Author
Difficulty
Tuning
brutalx 218
intermediate
C G C F A D
I transcribed as much of this as i could by ear, it may not be 100% but its how i 
play it. I must admit for the solo i had to get some help but i hope That doesn't 
change your opinion about this tab.

|--------------------------------------------------------------|
|--------------------------------------------------------------|
|--------------------------------------------------------------|
|------------------------------------8-------13----12----------|
|-----5---5h6p5---8---5-----10h12p10---------------------13----|
|-5-5---5-------5---5---5-5------------10-10----10----10----10-|
PM. .   .       .   .   . .             .  .     .     .     .

                         |this section 2X|
|------------------------------------------------------------------|
|------------------------------------------------------------------|
|----------------15-14---------------------------------------------| Entire
|-12h13p12-------------15----------------------------3-----------7-| Intro
|----------13-12--------------1---1h3p1-5------3h5p3-------3h5p3---| 3X
|-------------------------1-1---1----------3-3---------3-3---------|
PM                        . .   .          . .         . .
After 3rd time through play:
|------------------|
|--tremelo-picking-|
|------------------|
|------------7-[7]-|
|--------6-9-------|
|-0-7-10-----------|

                  ones not elevens
|----------------------------------------------------------------------|
|----------------------------------------------------------------------|
|----------------------------------------------------------------------|
|----------------------------------------------------------------------|2X
|-555-555-888-555-11-1-444-000-555-555-555-888-0-1-4-0-1-1-------------|
|-555-555-888-555-11-1-444-000-555-555-555-888-0-1-4-0-----5-5-4-4-1-1-|

However the second time through, instead of picking 
|-----------------|
|-----------------|
|-----------------|
|-----------------|
|-1-1-------------|
|-----5-5-4-4-1-1-| 
play:
|-------------------------------------------|
|-------------------------------------------|
|-----------------------2h3p2---------------|
|-----------------------------5p4-----------|
|-0-0-0-0-0-0-0-0-3-0-1-----------6p5p3-----|
|-0-0-0-0-0-0-0-0-3-0-1-----------------8p7-|

Play that entire section twice, then play:
|------|
|------|
|------| Figure out the timing
|------|
|-5--1-|
|-5--1-|

|------------------------------------|
|------------------------------------|
|-7----------------------------------|
|---7h8------------------------------|
|-------10-6h10-5h9----5---8-4--1~-0-|
|----------------------5---8-4--1~-0-|

|---------------------------------------------------------------|
|---------------------------------------------------------------|
|---------------------------------------------7-----------------|
|-----------------------------------------------7h8-------------|
|-5-----------------------------1-------------------10-6h10-5h9-|
|-5-555-555-555-555-555-555-555-1-111-111-111-------------------|
PM  ... ... ... ... ... ... ...   ... ... ...

|-----------------------------------------------------------|
|-----------------------------------------------------------|   Play
|-----------------------------------------------------------|   This
|-----------------------------------------------------------|   Twice
|-5-----------8-4-------------1-------------0-0-0-0-0-0-0-0-|
|-5-555-555-5-8-4-444-444-444-1-111-111-111-0-0-0-0-0-0-0-0-|
PM  ... ... .     ... ... ...   ... ... ... . . . . . . . .

 However, second time through,when you get to the 1's after the 4's just ring out 1 and 0 like so:
|-------|
|-------|
|-------|
|-------|
|-1~-0~-|
|-1~-0~-|
Now my favorite part
|---------------------------------------|
|------tremolo-picking------------------|
|---------------------------------------|
|-5-8-5--1-4-0--5-8-5--10-8-7-8-7-5-7-4-|
|---------------------------------------|
|---------------------------------------|

|-----------------|
|-tremolo picking-|
|-----------------|
|--5-8-5--1-4-0---|
|-----------------|
|-----------------|

|------------------------------------------|
|--------------------------------10p7------|
|-------------------------------------8----|
|---------------------------------------10-|
|-------------333-666-999-121212-----------|
|-000-444-777------------------------------|

|------------------------------------------|
|-tremolo-picking--------------------------|
|------------------------------------------| \
|-5-8-5--1-4-0--5-8-5--10-8-7-8-7-5-7-4----|  \
|------------------------------------------|   \
|------------------------------------------|    \
                                                 \
|-----------------|                               \
|-tremolo-picking-|                                \
|-----------------|                                 \
|-5-8-5--1-4-0----|                                  \
|-----------------|                                   \
|-----------------|                                    \ Two
                                                       /Times
|------------------------------------------------|    / 
|------------------------------------------------|   /   
|------------------------------------------------|  /   
|--------------------------------8-7-5-4---------| /    
|-9h10p9p0-12h13p12p0-10h12p10p0---------6-5-----|    
|--------------------------------------------8-7-|  

   The following are all triplets (im getting lazy sorry)
|----------|
|----------|
|----------|
|----------|
|-0-4-7-10-|
|-0-4-7-10-|

|-------------------------------------|
|-------------------------------------|
|-------------------------------------|
|-8------13------5------5------3------|
|-5-(X8)-10-(X8)-1-(X8)-3-(X6)-3-(X6)-|
|-5------10------1------3------3------|

Forgive me for this but for the solo i jumped on guitar pro and used that 
transcription, this is only my second tab so forgive me for not being able to 
figure it out on my own:
|--18-17-15-18-17-15----------15-17-18-------17-18-17----------18-20-18----|
|--------------------15-16-18----------16-20----------20-18-22----------22-|
|--------------------------------------------------------------------------|
|--------------------------------------------------------------------------|
|--------------------------------------------------------------------------|
|--------------------------------------------------------------------------|

Now the Arpeggios, Sweeps, whatever you wanna call em:
|-----------------------------------------15h18p15------------------15h20p15|
|--------20p15---20p15------------------15--------15--------------15--------|
|------15------15-----15--------------15------------15----------15----------|
|---17------------------17----------17----------------17------17------------|
|-17----------------------17------17--------------------17--17--------------|
|----------------------------17-17------------------------17----------------|

|-------------------15h22p15----------------------------------------------|
|-15--------------15--------15-------------------20p15-----------------15-|
|---15----------15------------15----------15--15------15-------------15---|
|-----17------17----------------17------17--17----------17---------17-----|
|-------17--17--------------------17--17------------------17-----17-------|
|---------17------------------------17----------------------17-17---------|

|-15h18p15------------------15h20p15------------------15h17p15---------|
|---------15--------------15--------15--------------15--------15-------|
|-----------15----------15------------15----------15------------15-----|
|-------------17------17----------------17------17----------------17---|
|---------------17--17--------------------17--17--------------------17-|
|-----------------17------------------------17-------------------------|

|-------------------|
|-------------------|
|-------14h15p14----| Two
|-12-15----------12-|Times
|-------------------|
|-------------------|

|-------------------------------------|
|----------------------------------17-|
|-------14h15p14----------15p14-------|
|-12-15----------17-12-15-------17----|
|-------------------------------------|
|-------------------------------------|
(now back to my interpretation)
Now play the intro again twice....

Then play:
|-------------------------------------------------------------------------|
|-------------------------------------------------------------------------|
|-----------------------------------------------------5-----5-----5-----8~|
|-----------------7-----7-----7-----8------7---7h8p7----------------------|
|-----5---5h6p5-----------------------------------------------------------|
|-000---0-------0---0-0---0-0---0-0---0000---0-------0--0-0---0-0---0-0---|
PM...   .       .   . .   . .   . .   ....   .       .  . .   . .   . .

|----------------------------------------------------------------------|
|----------------------------------------------------------------------|
|----------------------------------------------------------------------|
|----------------------------------------------------------------------|
|-555-555-888-555-11-1-444-000-555-555-888-555-0-1-4-0-1-1-------------|
|-555-555-888-555-11-1-444-000-555-555-888-555-0-1-4-0-----5-5-4-4-1-1-|

|--------------------------------------------{tremolo below}-| 
|-------------------------------------------8--------10------|
|-----------------------------------------7---8-12-8---------|
|-------------------------------------7h8--------------------| 
|-555-555-888-555-11-1-444-000-555-10------------------------|
|-555-555-888-555-11-1-444-000-555---------------------------|

Play that bit a couple times then end on:
|-------|
|-------|
|-------|
|-8~--8-|
|-5~--5-|
|-5~--5-|
Suggest correction new What's this?
You can suggest a correction to this tab. Community and Mods will review your correction and vote to approve or reject it.
comments
print report bad tab
1 comment total.
+1 reply
brutalx 218 wrote on April 5 2010, 01:04 pm

Sorry I forgot the key:

h = hammer on
p = pull off
[#] = artificial harmonic
~ = let ring

please rate and comment thanx

guest
You may want to rate the tab now too:
select rating
Please do not post tabs as comments. Select "correction" instead!