Oops, an error
Loading. Please wait.

Indonesia tab

version 2
version 2

Whole song

Interactive

9,453 views 1 this week
3 commentsread comments
1 2 3 4 5
x 3
add to favorites
×
Save as Personal and add changes to this tab that will be seen only by you. Learn more ›
×
You can save this tab as Personal to edit and correct it or add notes. All changes will be seen only by you. Learn more »
launch autoscroll
font size
0
reset
how to read this tab
guitar tuner
edit
Autoscroll
slow
fast
+/-
esc
set tempo
stop
[Indonesia]
[Constellations]
[August Burns Red]

As requested by jturak515 !

aha straight. up. sweep picking lol awesome :P gotta expect it from
a song with BTBAM in it ahaha just hope ABR doesnt start slappin a
sweep solo in every song....  still great tho!

Watch the times, some things overlap.
See how many times each riff is played (No indication means 1)
Watch if each part has one guitar or two matching.
Symbols at bottum.

[Riff 1] - [00:00] - [00:29]
- -------------------------------------------------------------------------|
- ---------------------------------------------------------------11p10-----|
- -----------------------------------------------------7h8p7----------10\--|
- ---------------------------5h7p5-8-------13--12------------8-7-----------|
- ---5-----5h6p5---8---5---------------------------10----------------------|
- -5---5-5-------5---5---5-5-----------1010--10--10--10--------------------|
PM .   ...       .   .   ...           ....  ..  ..  ..

- -------------------------------------------------------------------------|
- -------------------------------------------------------------------------|
- -------------------------------------------------------------------------|
- -----------------------------------------------------3---------------7---|
- ---1-----1h3p1---5-----1---1h3p1---5-----3---3h5p3---------3---3h5p3-----|
- -1---1-1-------1---1-1---1-------1---3-3---3-------3---3-3---3-----------|
PM .   ...       .   ...   .       .   ...   .       .   ...   .

[Riff 2] - [00:00] - [00:09]
- -----------------------|
- -----------------------|
- -----------------------|
- -5----5----1----3--///-|
- -5----3----1----3--///-|
- -5---------1----3--///-|

----------------------------------------------------------------------------

[Riff 3] - [00:18] - [00:29]
- ---------------------------6h8p8-10--------------------------------------|
- -----------------3-------------------------------------------------------|
- ---3-----3h5p3-------3-----------------------------------------12p10-----|
- -5---5-5-------5---5---5-5-----------------------10--8h10p8---------10\--|
- -----------------------------------------10--13------------10p8----------|
- -------------------------------------1010--10--10--10--------------------|
PM .   ...       .   .   ...           ....  ..  ..  ..

- -------------------------------------------------------------------------|
- ---------------------------------------------------------------------6---|
- ---0-----0h2p0---3-----0---0h2p0-5-3-----2---2h3p2---5-----2---2h3p2-----|
- -1---1-1-------1---1-1---1-----------3-3---3-------3---3-3---3-----------|
- -------------------------------------------------------------------------|
- -------------------------------------------------------------------------|
PM .   ...       .   ...   .           ...   .           ...   .

----------------------------------------------------------------------------

[Riff 4] - [00:29] - [00:32]
- -------------------------------------|
- -------------------------------------|
- -------------------------2---[2~]----|
- -----------------1---4---------------|
- ---------0---3-----------------------|
- -0---4-------------------------------|
PM .........................
AP .........................
----------------------------------------------------------------------------

[Riff 5] - [00:32] - [00:54]-----------------------------------------| 2x
- -------------------------------------------------------------------|
- -------------------------------------------------------------------|
- -------------------------------------------------------------------|
- -------------------------------------------------------------------|
- -555-555-888-555---11-11-444-000-555-555-888-555-1-0-4-0-70504000--|
- -555-555-888-555---11-11-444-000-555-555-888-555-1-0-4-0-70504000--|
PM ................................................................

- ---------------------------------------------------------------------|
- ---------------------------------------------------------------------|
- -------------------------------------------------2h3p2---------------|
- -------------------------------------------------------5p4-1-0-------|
- -555-555-888-555---11-11-444-000-00000-0-4-0-1-0---------------3-1-0-|
- -555-555-888-555---11-11-444-000-00000-0-4-0-1-0---------------------|
PM ...............................................

----------------------------------------------------------------------------

[Riff 6, Guitar 1 & 2] - [00:54] - [01:03]
- -----------------------------------------------------------------|
- -------------------------------------------------3---------------|
- ---------------------------------------------------2h3-----------|
- -5-------------------------------1---------------------5-1h5-0h4-|
- -5-------------------------------1-------------------------------|
- -5-------------------------------1-------------------------------|
-
- -----------------------------------------------------------------|
- -------------------------------------------------3---------------|
- ---------------------------------------------------2h3-----------|
- -5-------------------------------1---------------------5-1h5-0h4-|
- -5---555-555-555-555-555-555-555-1---111-111-111-----------------|
- -5---555-555-555-555-555-555-555-1---111-111-111-----------------|
PM     ...........................     ...........


- -----------------------------------------------------------------|
- -----------------------------------------------------------------|
- -----------------------------------------------------------------|
- -5-------------8-4---------------1~--------------0~--------------|
- -5-------------8-4---------------1~--------------0~----------0---|
- -5-------------8-4---------------1~--------------0~----------0---|
PM                                                             .
-
- -----------------------------------------------------------------|
- -----------------------------------------------------------------|
- -----------------------------------------------------------------|
- -5-------------8-4---------------1~--------------0~--------------|
- -5---555-555-5-8-4---444-444-444-1~--------------0~----------0---|
- -5---555-555-5-8-4---444-444-444-1~--------------0~----------0---|
PM     .........       ...........                             .

----------------------------------------------------------------------------

[Riff 7] - [01:03] - [01:22]
- -----------------------------------------------------------------|
- -------------------------------------------------3---------------|
- ---------------------------------------------------2h3-----------|
- -5-------------------------------1---------------------5-1h5-0h4-|
- -5---555-555-555-555-555-555-555-1---111-111-111-----------------|
- -5---555-555-555-555-555-555-555-1---111-111-111-----------------|
PM     ...........................     ...........

- -----------------------------------------------------------------|
- -----------------------------------------------------------------|
- -----------------------------------------------------------------|
- -5-------------8-4---------------1-----------------------1-------|
- -5---555-555-5-8-4---444-444-444-1---111-111-111-0-0-0-0-1-0-0-0-|
- -5---555-555-5-8-4---444-444-444-1---111-111-111-0-0-0-0-1-0-0-0-|
PM     .........       ...........     ...................   .....

- -----------------------------------------------------------------|
- -------------------------------------------------3---------------|
- ---------------------------------------------------2h3-----------|
- -5-------------------------------1---------------------5-1h5-0h4-|
- -5---555-555-555-555-555-555-555-1---111-111-111-----------------|
- -5---555-555-555-555-555-555-555-1---111-111-111-----------------|
PM     ...........................     ...........

- -----------------------------------------------------------------|
- -----------------------------------------------------------------|
- -----------------------------------------------------------------|
- -5-------------8-4---------------1~--------------0~--------------|
- -5---555-555-5-8-4---444-444-444-1~--------------0~------0-------|
- -5---555-555-5-8-4---444-444-444-1~--------------0~------0-------|
PM     .........       ...........                         .

----------------------------------------------------------------------------

[Riff 8, Guitar 1 & 2] - [01:22] - [01:29]
- -----------------------------------------------------------------|
- -----------------------------------------------------------------|
- -------------------------------------------------5---------------|
- -5-------8---5-------------------5-------8---5-----8-7-8-7-5-7-4-|
- -----------------6-------9---5-----------------------------------|
- -----------------------------------------------------------------|
AP ...............................................................
-
- -----------------------------------------------------------------|
- -----------------------------------------------------------------|
- -3-------7---3-----------7---5---3-------7---3---8-7-5-7-5---5---|
- -----------------7-----------------------------------------8---7-|
- -----------------------------------------------------------------|
- -----------------------------------------------------------------|
AP ...............................................................


- ---------------------------------|
- ---------------------------------|
- ---------------------------------|
- -5-------8---5-------------------|
- -----------------6-------9---5---|
- ---------------------------------|
AP .............................
-
- ---------------------------------|
- ---------------------------------|
- -3-------7---3-----------7---5---|
- -----------------7---------------|
- ---------------------------------|
- ---------------------------------|
AP .............................

----------------------------------------------------------------------------

[Riff 9, Guitar 1 & 2] - [01:29] - [01:32]
- -----------------------------5p2----|-5----|
- ------------------------------------|--7---|
- -------------------------222----5p2-|---5--| or like this. for all you
- -----------------111-444------------|----7-| fancy sweepers out there
- ---------000-333--------------------|------|
- -000-444----------------------------|------|
PM ...........................
-
- -----------------------------8p5----|-8------|
- ------------------------------------|--10----|
- -------------------------555----8p5-|----8---| or like this for all you
- -----------------444-777------------|-----10-| fancy sweepers out there
- ---------333-666--------------------|--------|
- -444-777----------------------------|--------|
PM ...........................

----------------------------------------------------------------------------

[Riff 10] - [01:32] - [01:55]---------------------------------------| 2x
- ------------------------------------------------------------------|
- ------------------------------------------------------------------|
- ------------------------------------------------------------------|
- -55-55-----55555-55555-----55-55-55-55-----55555-55555-----55-55--|
- -55-55-----55555-55555-----55-55-55-55-----55555-55555-----55-55--|
PM ...............................................................

- -----------------------------------------------------------------|
- -----------------------------------------------------------------|
- -----------------------------------------------------------------|
- -----------------------------------------------------------------|
- -55-55-----55555-55555-----55-55-00-00-000000000-----------------|
- -55-55-----55555-55555-----55-55-00-00-000000000-----------------|
PM ...............................................

[Riff 11, Guitar 1 & 2] - [01:32] - [01:55]-------------------------| 2x
- ------------------------------------------------------------------|
- ------------------------------------------------------------------|
- -------------------------------------------------5----------------|
- -5-------8---5-------------------5-------8---5-----8-7-8-7-5-7-4--|
- -----------------6-------9---5------------------------------------|
- ------------------------------------------------------------------|
AP ...............................................................
-
- -----------------------------------------------------------------|
- -----------------------------------------------------------------|
- -3-------7---3-----------7---5---3-------7---3---8-7-5-7-5---5---|
- -----------------7-----------------------------------------8---7-|
- -----------------------------------------------------------------|
- -----------------------------------------------------------------|
AP ...............................................................


- -----------------------------------------------------------------|
- -----------------------------------------------------------------|
- -----------------------------------------------------------------|
- -5-------8---5-------------------4h5p4p0-7h8p7p0-5h7p5p0-4h5p4p0-|
- -----------------6-------9---5-----------------------------------|
- -----------------------------------------------------------------|
AP .............................
-
- -----------------------------------------------------------------|
- -----------------------------------------------------------------|
- -3-------7---3-----------7---5-----------------------------------|
- -----------------7---------------4h5p4p0-7h8p7p0-5h7p5p0-4h5p4p0-|
- -----------------------------------------------------------------|
- -----------------------------------------------------------------|
AP .............................


- ---------------------|-----------------|
- -2h3p2---------------|-----------------|
- -------3p2-1-0-------|-----------------| Play on second ending.
- ---------------3-1-0-|-----------------|
- ---------------------|---------000-333-|
- ---------------------|-000-444---------|
PM                       ...............
-
- ---------------------|-----------------|
- -2h3p2---------------|-----------------|
- -------3p2-1-0-------|-----------------| Play on second ending.
- ---------------3-1-0-|-----------------|
- ---------------------|---------000-333-|
- ---------------------|-000-444---------|
PM                       ...............

----------------------------------------------------------------------------

[Riff 12] - [01:54] - [02:10]
- --------------------------------------------------------------|
- --------------------------------------------------------------|
- --------------------------------------------------------------|
- -8-8-8-8-8-8-8-8-8-8-8-8-13-13-13-13-13-13-13-13-13-13-13\----|
- -5-5-5-5-5-5-5-5-5-5-5-5-10-10-10-10-10-10-10-10-10-10-10\----|
- -5-5-5-5-5-5-5-5-5-5-5-5-10-10-10-10-10-10-10-10-10-10-10\----|

- -------------------------------------------------|
- -------------------------------------------------|
- -------------------------------------------------|
- -5-5-5-5-5-5-5-5-5-5-5-5-5-5-5-5-5-5-5-3-3-3-3-3-|
- -1-1-1-1-1-1-1-1-1-1-1-1-3-3-3-3-3-3-3-3-3-3-3-3-|
- -1-1-1-1-1-1-1-1-1-1-1-1-3-3-3-3-3-3-3-3-3-3-3-3-|

- --------------------------------------------------------------|
- --------------------------------------------------------------|
- --------------------------------------------------------------|
- -8-8-8-8-8-8-8-8-8-8-8-8-13-13-13-13-13-13-13-13-13-13-13\----|
- -5-5-5-5-5-5-5-5-5-5-5-5-10-10-10-10-10-10-10-10-10-10-10\----|
- -5-5-5-5-5-5-5-5-5-5-5-5-10-10-10-10-10-10-10-10-10-10-10\----|

- -------------------------------------------------|
- -------------------------------------------------|
- -------------------------------------------------|
- -5-5-5-5-5-5-5-5-5-5-5-5-------------------------|
- -1-1-1-1-1-1-1-1-1-1-1-1-3-3-3-3-3-3-3-3-3-3-3-3-|
- -1-1-1-1-1-1-1-1-1-1-1-1-3-3-3-3-3-3-3-3-3-3-3-3-|
PM                         .......................

[Riff 13] - [02:02] - [02:10]
- -------------------------------------------------------------------------|
- -------------------15-13-15-16-15-13-------------------------------15-15-|
- -------------------------------------------------------14-12-14-15-------|
- ----12-14-15-14-12----------------------10-12-13-12-10-------------------|
- -12----------------------------------10----------------------------------|
- -------------------------------------------------------------------------|

- -18-17-15-18-17-15----------15-17-18----15-17-18-17-15----17-18-20-18-17-|
- -------------------15-16-18----------16----------------18----------------|
- -------------------------------------------------------------------------|
- -------------------------------------------------------------------------|
- -------------------------------------------------------------------------|
- -------------------------------------------------------------------------|

----------------------------------------------------------------------------

Note: <3

[Riff 14a] - [02:10] - [02:38]----------------------------------------------| 2x
- ----------------10h15p10----------------------------10-18-10--------------|
- -------------11----------11----------------------11----------11-----------|
- ----------12----------------12----------------12----------------12--------|
- -------12----------------------12----------12----------------------12-----|
- -10h13----------------------------13-10h13----------------------------13--|
- --------------------------------------------------------------------------|
                                                         T

- ----------------15h20p15----------------------------15-22-15-------------|
- -------------16----------16----------------------16----------16----------|
- ----------17----------------17----------------17----------------17-------|
- -------17----------------------17----------17----------------------17----|
- -15h18----------------------------18-15h18----------------------------18-|
- -------------------------------------------------------------------------|
                                                         T

- ----------------10h15p10----------------------------10-18-10-------------|
- -------------11----------11----------------------11----------11----------|
- ----------12----------------12----------------12----------------12-------|
- -------12----------------------12----------12----------------------12----|
- -10h13----------------------------13-10h13----------------------------13-|
- -------------------------------------------------------------------------|
                                                         T

- ----------------15h20p15----------------------------15h17p15-------------|
- -------------16----------16----------------------16----------16----------|
- ----------17----------------17----------------17----------------17-------|
- -------17----------------------17----------17----------------------17----|
- -15h18----------------------------18-15h18----------------------------18-|
- -------------------------------------------------------------------------|

[Riff 14b] - [02:10] - 02:38]
- -------------------------------------------------|
- -------------------------------------------------|
- -------------------------------------------------|
- -------------------------------------------------|
- -5-5-5-5-5-5-5-555-5-5-5-5-5-5-5-5-5-5-555-5-5-5-|
- -5-5-5-5-5-5-5-555-5-5-5-5-5-5-5-5-5-5-555-5-5-5-|
PM ...............................................

- -------------------------------------------------|
- -------------------------------------------------|
- -------------------------------------------------|
- -5-5-5-5-5-5-5-555-5-5-5-5-5-5-5-5-5-5-555-5-5-5-|
- -3-3-3-3-3-3-3-333-3-3-3-3-3-3-3-3-3-3-333-3-3-3-|
- -------------------------------------------------|
PM ...............................................

- -------------------------------------------------|
- -------------------------------------------------|
- -------------------------------------------------|
- -------------------------------------------------|
- -1-1-1-1-1-1-1-111-1-1-1-1-1-1-1-1-1-1-111-1-1-1-|
- -1-1-1-1-1-1-1-111-1-1-1-1-1-1-1-1-1-1-111-1-1-1-|
PM ...............................................

- -------------------------------------------------|
- -------------------------------------------------|
- -------------------------------------------------|
- -------------------------------------------------|
- -3-3-3-3-3-3-3-333-3-3-3-3-3-3-3-3-3-3-333-3-3-3-|
- -3-3-3-3-3-3-3-333-3-3-3-3-3-3-3-3-3-3-333-3-3-3-|
PM ...............................................

- -------------------------------------------------|
- -------------------------------------------------|
- -------------------------------------------------|
- -------------------------------------------------|
- -5-5-5-5-5-5-5-555-5-5-5-555-5-5-5-5-5-555-5-5-5-|
- -5-5-5-5-5-5-5-555-5-5-5-555-5-5-5-5-5-555-5-5-5-|
PM ...............................................

- -------------------------------------------------|
- -------------------------------------------------|
- -------------------------------------------------|
- -555-5-5-5-5-5-555-5-5-5-555-5-5-5-5-5-555-5-5-5-|
- -333-3-3-3-3-3-333-3-3-3-333-3-3-3-3-3-333-3-3-3-|
- -------------------------------------------------|
PM ...............................................

- -------------------------------------------------|
- -------------------------------------------------|
- -------------------------------------------------|
- -------------------------------------------------|
- -111-1-1-1-1-1-111-1-1-1-111-1-1-1-1-1-111-1-1-1-|
- -111-1-1-1-1-1-111-1-1-1-111-1-1-1-1-1-111-1-1-1-|
PM ...............................................

- -------------------------------------------------|
- -------------------------------------------------|
- -------------------------------------------------|
- -------------------------------------------------|
- -333-3-3-3-3-3-333-3-3-3-333-3-3-3-3-3-333-3-3-3-|
- -333-3-3-3-3-3-333-3-3-3-333-3-3-3-3-3-333-3-3-3-|
PM ...............................................

----------------------------------------------------------------------------

[Riff 15a] - [02:38] - [02:42]
- -------------------------------------------------------------------------|
- ----------------------------------------------------------------16p15----|
- -------14h15p14----------14h15p14----------14h15p14----15p14----------17-|
- ----16----------16----16----------16----16----------16-------16----------|
- -17----------------17----------------17----------------------------------|
- -------------------------------------------------------------------------|

[Riff 15b] - [02:38] - [02:42]
- -------------------------------------------------|
- -------------------------------------------------|
- -------------------------------------------------|
- -------------------------------------------12\---|
- -0-000-0-0-0-0-000-0-0-0-0-0-0-0-0-0-0-0-0-12\---|
- -0-000-0-0-0-0-000-0-0-0-0-0-0-0-0-0-0-0-0-12\---|
PM .........................................

----------------------------------------------------------------------------

[Riff 1] - [02:42] - [03:02] - 2x
[Riff 3] - [02:52] - [03:02]

----------------------------------------------------------------------------

[Riff 16] - [03:02] - [03:07]
- -------------------------------------------------------------------------|
- -------------------------------------------------------------------------|
- --------------------------------------------------------------------8~---|
- -----------------7-----7---7---8-------7---7h8p7---10-----10---10--------|
- -----5---5h6p5-----------------------------------------------------------|
- -000---0-------0---0-0---0---0---0-000---0-------0----0-0----0----0------|
PM ...   .       .   ...   .   .   .....   .       .    ...    .    .

----------------------------------------------------------------------------

[Riff 17, Guitar 1 & 2] - [03:07] - [03:31]--------------------------| 2x
- -------------------------------------------------------------------|
- -------------------------------------------------------------------|
- -------------------------------------------------------------------|
- -------------------------------------------------(Hit each twice)--|
- -555-555-888-555---11-11-333-333-555-555-888-555-10-8-7-8-7-5-7-4--|
- -555-555-888-555---11-11-333-333-555-555-888-555-10-8-7-8-7-5-7-4--|
PM ................................................................
-
- ------------------------------------------------------------------|
- ------------------------------------------------------------------|
- ------------------------------------------------------------------|
- -------------------------------------------------(Hit each twice)-|
- -555-555-888-555---11-11-333-333-555-555-888-555-10-8-7-8-7-5-7-4-|
- -555-555-888-555---11-11-333-333-555-555-888-555-10-8-7-8-7-5-7-4-|
PM ................................................................


- -----------------------------------------------------------------|------|
- ---------------------------------------------8-------8-------10--|-8~---|
- -------------------------------------------7-----8-------8-------|------|
- -------------------------------------5h7h8-----------------------|(end)-|
- -555-555-888-555---11-11-333-333-555-----------------------------|------|
- -555-555-888-555---11-11-333-333-555-----------------------------|------|
PM ...................................
AP                                                 ..............
-
- -----------------------------------------------------6-------8---|-10~--|
- -------------------------------------------------8-------8-------|------|
- ------------------------------------------7h10p8-----------------|------|
- -------------------------------------8h10------------------------|------|
- -555-555-888-555---11-11-333-333-555-----------------------------|(end)-|
- -555-555-888-555---11-11-333-333-555-----------------------------|------|
PM ...................................
AP                                                 ..............

----------------------------------------------------------------------------

[Riff 18] - [03:31] - [03:34]
- ---------|
- ---------|
- ---------|
- -8~------|
- -5~------|
- -5~------|

----------------------------------------------------------------------------

[Symbols]
PM... Palm Mute notes with (...) under them
h     Hammer On
p     Pull Off
\     Slide Down
/     Slide Up
AP... Alternate Pick notes with (...) under them
///   Pick Slide
T     Right Finger Tap
~     let Ring
[ ]   Pinch Harmonic

:D

            
            
Suggest correction
Creating personal tab
Creating personal tab
You can edit any tab online and save it as your Personal.

You can edit, replace or remove any tab part or add personal notes – all changes will be seen only by you.

Personal tabs can be accessed anytime from any device, even offline.
Learn more »
Give kudos to tab author, rate the tab!
1 2 3 4 5
comments
print report bad tab
3 comments total.
+1 reply
Steven_Shreds 10 Apr 11, 2010 12:02 PM

Epic win, thanks for the tab. perfect.

0 reply
josh-josh-josh 10,743 Apr 14, 2010 08:32 AM

LOL! thank you :D

+1 reply
mswathmore 10 Jul 06, 2010 07:36 PM

Every you do is perfect. thanks man. keep it up.

guest
You may want to rate the tab now too:
select rating
Wanna post a correction for this tab? Suggest correction