Oops, an error
Loading. Please wait.
We have Chord Pro version of Invisible Enemy.
It's the closest thing you can get to the original song and it has interactive parts. Check out the tab »
×
1,273 views 114 this week
no commentswrite comment
1 2 3 4 5
x 3
add to favorites
×
Save as Personal and add changes to this tab that will be seen only by you. Learn more ›
×
You can save this tab as Personal to edit and correct it or add notes. All changes will be seen only by you. Learn more »
launch autoscroll
font size
0
reset
how to read this tab
guitar tuner
edit
Autoscroll
slow
fast
+/-
esc
set tempo
stop
[Invisible Enemy]
[Phantom Anthem]
[August Burns Red]

Tuning: B Gb B E Ab Db
Playthrough: https://www.youtube.com/watch?v=QXHDSKyc3f4

[Riff 1a] - [00:18] - [00:43] - [x3]
- ---------------------------------------------------------
- ---------------------------------------------------------
- ---------------------------------------------------------
- ---------------------------------------------------------
- -0-0-0-0---0---0-0-0-0---0---0-0-0-0---0---0-0-0-0---0---
- -0-0-0-0---0---0-0-0-0---0---0-0-0-0---0---0-0-0-0---0---
PM .......................................................

- -----------------------------------------------------------------
- -----------------------------------------------------------------
- -----------------------------------------------------------------
- -------------------------------------------------------------8---
- -0-0-0-0---0---0-0-0-0---0---0-0-0-0---0---0-0-0-0---0---0-0-6---
- -0-0-0-0---0---0-0-0-0---0---0-0-0-0---0---0-0-0-0---0---0-0-8---
PM ...........................................................

[Riff 1b] - [00:31] - [00:55] - [x4]
   T      T      T    T    T    T        T      T      T    T    T
- --------------------------------------------------------------------
- --------------------------------------------------------------------
- --------------------------------------------------------------------
- -12p8p7-12p8p7-10p7-12p7-13p7-12p8p7h8-12p8p7-12p8p7-10p7-12p7-16p7-
- --------------------------------------------------------------------
- --------------------------------------------------------------------

   T      T      T    T    T    T        T      T     T    T       T    T    T
- --------------------------------------------------------------------------------
- ----------------------------------------------11p10-----------------------------
- ---------------------------------------11p8p7-------14p7-12/14p7-15p7-14p7-11p7-
- -12p8p7-12p8p7-10p7-12p7-13p7-12p8p7h8------------------------------------------
- --------------------------------------------------------------------------------
- --------------------------------------------------------------------------------

[Riff 1c] - [00:43] - [00:55] - [x2]
- ---------------------------------------------------------
- ---------------------------------------------------------
- ---------------------------------------------------------
- -----------------------------------------------------8---
- -0-0-0-----0---0-0-0-0---0---0-0-0-0---0---0-0-0-0---6---
- -0-0-0-12b-0---0-0-0-0---0---0-0-0-0---0---0-0-0-0---8---
PM .....     .......................................

- -----------------------------------------------------------------
- -----------------------------------------------------------------
- -----------------------------------------------------------------
- -------------------------------------------------------------8---
- -0-0-0-----0---0-0-0-0---0---0-0-0-0---0---0-0-0-0---0---0-0-6---
- -0-0-0-12b-0---0-0-0-0---0---0-0-0-0---0---0-0-0-0---0---0-0-8---
PM .....     .................................................

[Riff 2a] - [00:55] - [01:15] - [x16]
   T      T      T    T      T      T
- ---------------------------------------
- ---------------------------------------
- -11p7p6-11p7p6-11p7-11p7p6-11p7p6-11p7-
- ---------------------------------------
- ---------------------------------------
- ---------------------------------------

[Riff 2b] - [00:55] - [01:15]
- -----------------------------------------------------------------
- -----------------------------------------------------------------
- -----------------------------------------------------------------
- -----------------------------------------------------------------
- -0---------------------------0-0-0-----9-----0-----1-----4---1---
- -0---------------------------0-0-0-----11----0-----1-----4---1---
PM ...............................................................

- -----------------------------------------------------------------
- -----------------------------------------------------------------
- -----------------------------------------------------------------
- -------------0---------------------------------------------------
- -0-----0-----0-------------------6---6-6-----0-----1-1---4---1---
- -0-----0-----0-------------------8---8-8-----0-----1-1---4---1---
PM .......                         .............................

- -----------------------------------------------------------------
- -----------------------------------------------------------------
- -----------------------------------------------------------------
- -----------------------------------------------------------------
- -----0-0-----0-----------------------0-0-0-0---------0-0---0-----
- -1b--0-0-----0-----------------------0-0-0-0-----1b--0-0---0-1b--
PM     .......................................         .......

- -----------------------------------------------------------------
- --------------------------------------------------------[5]------
- -----------------------------------------------------------------
- -------------------------------------------------------------1---
- -----0---0-0-0-0---------------------5---5-5---1---1-1-------1---
- -----0---0-0-0-0---------------------5---5-5---1---1-1-------1---
PM     .................................................

- -----------------------------------------------------------------
- -----------------------------------------------------------------
- -----------------------------------------------------------------
- -----------------------------------------------------------------
- -0---0-0-----0-----------------------0-0-0-0---------0-0---0-----
- -0---0-0-----0-----------------------0-0-0-0-----1b--0-0---0-1b--
PM ...........................................         .......

- -----------------------------------------------------------------
- -----------------------------------------------------------------
- -----------------------------------------------------------------
- -----------------------------------------------------------------
- -----0---0-0-0-0---------------------5---5-5---1---1-1--6b-------
- -----0---0-0-0-0---------------------5---5-5---1---1-1-----------
PM     .................................................

[Riff 3] - [01:15] - [01:29] - [x2]
- -----------------------------------------------------------------
- -----------------------------------------------------------------
- -----------------------------------------------------------------
- -------------8---------------8---------------8---8p7p0-----------
- -0-0-0-0---0-6---0---0-0---0-6---0-0-0-0---0-6---------8---0h4---
- -0-0-0-0---0-8---0---0-0---0-8---0-0-0-0---0-8-------------------
PM ...........     ...........     ...........

- -----------------------------------------------------------------
- -----------------------------------------------------------------
- -----------------------------------------------------------------
- -------------8---------------4---7h8p0---------------------------
- -0-0-0-0---0-6---0---0-0---0-4---------8---0-7h8p7p0-5---7--[4b]-
- -0-0-0-0---0-8---0---0-0---0-4-----------------------------------
PM ...........     ...........

[Riff 4a] - [01:29] - [01:55]
- -----------------------------------------------------------------
- -----------------------------------------------------------------
- -----------------------------------------------------------------
- ---------------------------------------------------------1--/4---
- -0-0-0-0---0-----0---------------------------0-0-0-0-0---1--/4---
- -0-0-0-0---0-1---0---------------------------0-0-0-0-0---1--/4---
PM ...........     .....................................

- -----------------------------------------------------------------
- -----------------------------------------------------------------
- -----------------------------------------------------------------
- -------------------------8\------------------------------3---2---
- -----6-6---6-6---6-------6\------3---3-3-----3-----0-0---1---0---
- -----8-8---8-8---8-------8\------5---5-5-----5-----2-2---3---2---
PM     .............               .....................

- -----------------------------------------------------------------
- -----------------------------------------------------------------
- -----------------------------------------------------------------
- ---------------------------------------------------------1--/4---
- -0-0-0-0---0-----0---------------------------0-0-0-0-0---1--/4---
- -0-0-0-0---0-1---0---------------------------0-0-0-0-0---1--/4---
PM ...........     .....................................

- -----------------------------------------------------------------
- -----------------------------------------------------------------
- -----------------------------------------------------------------
- -------------------------10-\9---7h8p0---------------------------
- -----6-6---6-6---6-------8--\7---------8---0-7h8p7p0-5---7--[4b]-
- -----8-8---8-8---8-------10-\9-----------------------------------
PM     .............

- -----------------------------------------------------------------
- -----------------------------------------------------------------
- -----------------------------------------------------------------
- ---------------------------------------------------------1--/4---
- -0-0-0-0---0-----0---------------------------0-0-0-0-0---1--/4---
- -0-0-0-0---0-1---0---------------------------0-0-0-0-0---1--/4---
PM ...........     .....................................

- -----------------------------------------------------------------
- -----------------------------------------------------------------
- -----------------------------------------------------------------
- -------------------------8\------------------------------3---2---
- -----6-6---6-6---6-------6\------3---3-3-----3-----0-0---1---0---
- -----8-8---8-8---8-------8\------5---5-5-----5-----2-2---3---2---
PM     .............               .....................

- -----------------------------------------------------------------
- -----------------------------------------------------------------
- -----------------------------------------------------------------
- ---------------------------------------------------------1--/4---
- -0-0-0-0---0-----0---------------------------0-0-0-0-0---1--/4---
- -0-0-0-0---0-1---0---------------------------0-0-0-0-0---1--/4---
PM ...........     .....................................

- -----------------------------------------------------------------
- -----------------------------------------------------------------
- -----------------------------------------------------------------
- -------------------------10-\9---7h8p0-------------------7-------
- -----6-6---6-6---6-------8--\7---------8---0-7h8p7p0-5-----------
- -----8-8---8-8---8-------10-\9-----------------------------------
PM     .............


[Riff 4b, Guitar 1 & 2] - [01:29] - [02:02]
- -------------------------------------------------10--------------
- -10------------------------------11----------------------11------
- -----------------------------------------------------------------
- -----------------------------------------------------------------
- -----------------------------------------------------------------
- -----------------------------------------------------------------
PM/AP.............................................................
- -------------------------------------------------10--------------
- -10------------------------------11----------------------11------
- -----------------------------------------------------------------
- -----------------------------------------------------------------
- -----------------------------------------------------------------
- -----------------------------------------------------------------
PM/AP.............................................................


- -----------------------------------------------------------------
- -10--------------------------------------------------------------
- ---------------------------------10------------------------------
- ---------------------------------------------------------11------
- -----------------------------------------------------------------
- -----------------------------------------------------------------
PM/AP.............................................................
- -----------------------------------------------------------------
- -10--------------------------------------------------------------
- ---------------------------------10------------------------------
- ---------------------------------------------------------11------
- -----------------------------------------------------------------
- -----------------------------------------------------------------
PM/AP.............................................................


- -------------------------------------------------10--------------
- -10------------------------------11----------------------11------
- -----------------------------------------------------------------
- -----------------------------------------------------------------
- -----------------------------------------------------------------
- -----------------------------------------------------------------
PM/AP.............................................................
- -----------------------------------------------------------------
- -------------------------------------------------11--------------
- -10------------------------------12----------------------12------
- -----------------------------------------------------------------
- -----------------------------------------------------------------
- -----------------------------------------------------------------
PM/AP.............................................................


- ---------------------------------------------------------------------------------
- -10------------------------------------------------------------------------------
- ---------------------------------10------------------------------10--------------
- ---------------------------------------------------------11----------------------
- ---------------------------------------------------------------------------------
- ---------------------------------------------------------------------------------
PM/AP.............................................................
- ---------------------------------------------------------------------------------
- ---------------------------------------------------------------------------------
- -10------------------------------------------------------------------------------
- ---------------------------------12----------------------14------12--------------
- ---------------------------------------------------------------------------------
- ---------------------------------------------------------------------------------
PM/AP.............................................................


[Riff 5] - [01:55] - [02:16]
- -----------------------------------------------------------------
- -----------------------------------------------------------------
- -----------------------------------------------------------------
- -0---------------------------------------------------------------
- -0---------------------------------------------------------------
- -0---------------------------------------------------------------

- -----------------------------------------------------------------
- -----------------------------------------------------------------
- -----------------------------------------------------------------
- -0-------------------------------3---------------2---------------
- -0-------------------------------1---------------0-----------3-2-
- -0-------------------------------3---------------2-----------3-2-
PM                                                             ...

- -----------------------------------------------------------------
- -----------------------------------------------------------------
- -----------------------------------------------------------------
- -0-------------------------------3---------------5---------------
- -0-------------------------------1---------------3---------------
- -0-------------------------------3---------------5---------------


[Riff 6, Guitar 1 & 2] - [02:16] - [02:41]
- -------------------------------------------------------------------------------
- -------------------------------------------------------------------------------
- -------------------------------------------------------------------------------
- -0-----------------------------------------------------------------------------
- -0-----------------------------------------------------------------------------
- -0-----------------------------------------------------------------------------
-
- -------------------------------------------------------------------------------
- -------------------------------------------------------------------------------
- -------------------------------------------------------------------------------
- -12p0-11h12p0-12p0-11h12p0-12p0-11p0-12p0-11h12p0-12p0-11h12p0-12p0-11h12h13p0-
- -------------------------------------------------------------------------------
- -------------------------------------------------------------------------------


- -------------------------------------------------------------------------------
- -------------------------------------------------------------------------------
- -------------------------------------------------------------------------------
- -3-----------------------------------2-----------------------------------------
- -1-----------------------------------0-----------------------------------------
- -3-----------------------------------2-----------------------------------------
-
- -------------------------------------------------------------------------------
- -------------------------------------------------------------------------------
- -------------------------------------------------------------------------------
- -12p0-11h12p0-12p0-11h12p0-12p0-11p0-12p0-11h12p0-12p0-11h12p0-12p0-11h12h13p0-
- -------------------------------------------------------------------------------
- -------------------------------------------------------------------------------


- -------------------------------------------------------------------------------
- -------------------------------------------------------------------------------
- -------------------------------------------------------------------------------
- -0-----------------------------------------------------------------------------
- -0-----------------------------------------------------------------------------
- -0-----------------------------------------------------------------------------
-
- -------------------------------------------------------------------------------
- -------------------------------------------------------------------------------
- -------------------------------------------------------------------------------
- -12p0-11h12p0-12p0-11h12p0-12p0-11p0-12p0-11h12p0-12p0-11h12p0-12p0-11h12h13p0-
- -------------------------------------------------------------------------------
- -------------------------------------------------------------------------------


- -------------------------------------------------------------------------------
- -------------------------------------------------------------------------------
- -------------------------------------------------------------------------------
- -3-----------------------------------5-----------------------------------------
- -1-----------------------------------3-----------------------------------------
- -3-----------------------------------5-----------------------------------------
-
- -------------------------------------------------------------------------------
- -------------------------------------------------------------------------------
- -------------------------------------------------------------------------------
- -12p0-11h12p0-12p0-11h12p0-12p0-11p0-12p0-11h12p0-12p0-11h12p0-12p0-11h12h13p0-
- -------------------------------------------------------------------------------
- -------------------------------------------------------------------------------


- -------------------------------------------------------------------------------
- -------------------------------------------------------------------------------
- -------------------------------------------------------------------------------
- -0-----------------------------------------------------------------------------
- -0-----------------------------------------------------------------------------
- -0-----------------------------------------------------------------------------
-
- -------------------------------------------------------------------------------
- -------------------------------------------------------------------------------
- -------------------------------------------------------------------------------
- -12p0-11h12p0-12p0-11h12p0-12p0-11p0-12p0-11h12p0-12p0-11h12p0-12p0-11h12h13p0-
- -------------------------------------------------------------------------------
- -------------------------------------------------------------------------------


- -------------------------------------------------------------------------------
- -------------------------------------------------------------------------------
- -------------------------------------------------------------------------------
- -3-----------------------------------2-----------------------------------------
- -1-----------------------------------0-----------------------------------------
- -3-----------------------------------2-----------------------------------------
-
- -------------------------------------------------------------------------------
- -------------------------------------------------------------------------------
- -------------------------------------------------------------------------------
- -12p0-11h12p0-12p0-11h12p0-12p0-11p0-12p0-11h12p0-12p0-11h12p0-12p0-11h12h13p0-
- -------------------------------------------------------------------------------
- -------------------------------------------------------------------------------


- -------------------------------------------------------------------------------
- -------------------------------------------------------------------------------
- -------------------------------------------------------------------------------
- -0-----------------------------------------------------------------------------
- -0-----------------------------------------------------------------------------
- -0-----------------------------------------------------------------------------
-
- -------------------------------------------------------------------------------
- -------------------------------------------------------------------------------
- -------------------------------------------------------------------------------
- -15p0-14h15p0-15p0-14h15p0-15p0-14p0-15p0-14h15p0-15p0-14h15p0-15p0-14h15h17p0-
- -------------------------------------------------------------------------------
- -------------------------------------------------------------------------------


- -------------------------------------------------------------------------------
- -------------------------------------------------------------------------------
- -------------------------------------------------------------------------------
- -3-----------------------------------5-----------------------------------------
- -1-----------------------------------3-----------------------------------------
- -3-----------------------------------5-----------------------------------------
-
- -------------------------------------------------------------------------------
- -------------------------------------------------------------------------------
- --------------------------------------------------------------------12p9-------
- -14p0-12h14p0-14p0-12h14p0-14p0-12p0-14p0-12h14p0-14p0-12h14p0-14p0-------10---
- -------------------------------------------------------------------------------
- -------------------------------------------------------------------------------


[Riff 7] - [02:41] - [02:54] - [x2]
- -------------------------------------------------------------
- -------------------------------------------------------------
- -------------------------------------------------------------
- -------------------------------------------------------------
- -0---0-0---0---0-0---0---0---0---0-0---0---0-0---0---0-0-0---
- -0---0-0---0---0-0---0---0---0---0-0---0---0-0---0---0-0-0---
PM ...........................................................

- -------------------------------------------------------------
- -------------------------------------------------------------
- -------------------------------------------------------------
- ---------------------------------------------------------8---
- -0---0-0---0---0-0---0---0---0---0-0---0---0-0---0---0-0-6---
- -0---0-0---0---0-0---0---0---0---0-0---0---0-0---0---0-0-8---
PM .......................................................

[Riff 8a] - [02:54] - [03:07]
- -------------------------------------------------------------------------------
- -------------------------------------------------------------------------------
- -------------------------------------------------------------------------------
- -12p0-11h12p0-12p0-11h12p0-12p0-11p0-12p0-11h12p0-12p0-11h12p0-12p0-11h12h13p0-
- -------------------------------------------------------------------------------
- -------------------------------------------------------------------------------

- -------------------------------------------------------------------------------
- -------------------------------------------------------------------------------
- -------------------------------------------------------------------------------
- -12p0-11h12p0-12p0-11h12p0-12p0-11p0-12p0-11h12p0-12p0-11h12p0-12p0-11h12h13p0-
- -------------------------------------------------------------------------------
- -------------------------------------------------------------------------------

- -------------------------------------------------------------------------------
- -------------------------------------------------------------------------------
- -------------------------------------------------------------------------------
- -15p0-14h15p0-15p0-14h15p0-15p0-14p0-15p0-14h15p0-15p0-14h15p0-15p0-14h15h17p0-
- -------------------------------------------------------------------------------
- -------------------------------------------------------------------------------

- -------------------------------------------------------------------------------
- -------------------------------------------------------------------------------
- --------------------------------------------------------------------12p9-------
- -14p0-12h14p0-14p0-12h14p0-14p0-12p0-14p0-12h14p0-14p0-12h14p0-14p0-------10---
- -------------------------------------------------------------------------------
- -------------------------------------------------------------------------------

[Riff 8b] - [02:54] - [03:07]
- -------------------------------------------------------------
- -------------------------------------------------------------
- -------------------------------------------------------------
- -------------------------------------------------------------
- -0---0-0---0---0-0---0---0---0---0-0---0---0-0---0---0-0-0---
- -0---0-0---0---0-0---0---0---0---0-0---0---0-0---0---0-0-0---
PM ...........................................................

- -------------------------------------------------------------
- -------------------------------------------------------------
- -------------------------------------------------------------
- -------------------------------------------------------------
- -0---0-0---0---0-0---0---0---0---0-0---0---0-0---0---0-0-0---
- -0---0-0---0---0-0---0---0---0---0-0---0---0-0---0---0-0-0---
PM ...........................................................

- -------------------------------------------------------------
- -------------------------------------------------------------
- -------------------------------------------------------------
- -------------------------------------------------------------
- -1---1-1---1---1-1---1---1---1---1-1---1---1-1---1---1-1-1---
- -3---3-3---3---3-3---3---3---3---3-3---3---3-3---3---3-3-3---
PM ...........................................................

- -------------------------------------------------------------
- -------------------------------------------------------------
- -------------------------------------------------------------
- -------------------------------------------------------------
- -3---3-3---3---3-3---3---3---3---3-3---3---3-3---3---3-3-3---
- -5---5-5---5---5-5---5---5---5---5-5---5---5-5---5---5-5-5---
PM ...........................................................


[Riff 9, Guitar 1 & 2] - [03:07] - [03:48] - [x3]
- -----------------------------------------------------------------
- -----------------------------------------------------------------
- -----------------------------------------------------------------
- -7-----------7--\5----/8---------7----------/10--12----8---------
- -----------------------------------------------------------------
- -----------------------------------------------------------------
-
- -----------------------------------------------------------------
- -------------------------------------------------8---------------
- -7-----------7--\3----/9---------7-----------11--------9------br-
- -----------------------------------------------------------------
- -----------------------------------------------------------------
- -----------------------------------------------------------------


- -----------------------------------------------------------------
- -----------------------------------------------------------------
- -------------------------------------------------------12---\7---
- -7-----------7--\5----/8---------7----------/10--12--------------
- -----------------------------------------------------------------
- -----------------------------------------------------------------
-
- -----------------------------------------------------------------
- -------------------------------------------------------11--------
- -7-----------7--\3----/9---------7-----------11-/12----------12\-
- -----------------------------------------------------------------
- -----------------------------------------------------------------
- -----------------------------------------------------------------


[Riff 10] - [03:21] - [03:51]
- -----------------------------------------------------------------
- -10--------------------------------------------------------------
- -----11-------------------------------------11p9-11br--------9---
- ---------10-h12-------------------10h12h14-----------------------
- -----------------------------------------------------------------
- -----------------------------------------------------------------

- -----------------------------------------------------------------
- -----------------------------------------------------------------
- -------------------------------------------------------------7p5-
- -----------------------5-----------------------------------------
- -12---\4-----5---7-----------7---5-----------8p7p5-----8---------
- -----------------------------------------------------------------

- -----------------------------------------------------------------
- ---------5---5/7-------------------------------------------------
- -7---------------------------------------7--/14------14br-12-----
- -----------------------------7--/8-------------------------------
- -----------------------------------------------------------------
- -----------------------------------------------------------------

- -------------------------------------------------15b-------------
- -13b---13b--------------12h13p12-------12---/15------------------
- -----------------11v-------------12------------------------------
- -----------------------------------------------------------------
- -----------------------------------------------------------------
- -----------------------------------------------------------------

   T        T        T     T        T        T
- -------------------------------------------------
- -19p15p14-19p15p14-19p15-19p15p14-19p15p14-19p15-
- -------------------------------------------------
- -------------------------------------------------
- -------------------------------------------------
- -------------------------------------------------

   T        T        T     T        T        T        T
- -------------------------/--3---\-/--3---\-/--3---\-/--3---\-
- -19p15p14-19p15p14-19p15-19p15p14-22p15p14-20p15p14-19p15p14-
- -------------------------------------------------------------
- -------------------------------------------------------------
- -------------------------------------------------------------
- -------------------------------------------------------------

   T        T        T     T        T        T
- -------------------------------------------------
- -19p15p14-19p15p14-19p15-19p15p14-19p15p14-19p15-
- -------------------------------------------------
- -------------------------------------------------
- -------------------------------------------------
- -------------------------------------------------

   T        T        T     T        T        T        T
- -------------------------/--3---\-/--3---\-/--3---\-/--3---\-
- -19p15p11-19p15p11-19p15-23p15p11-22p15p11-20p15p11-19p15p11-
- -------------------------------------------------------------
- -------------------------------------------------------------
- -------------------------------------------------------------
- -------------------------------------------------------------

   T        T        T     T        T        T
- -------------------------------------------------
- -19p15p14-19p15p14-19p15-19p15p14-19p15p14-19p15-
- -------------------------------------------------
- -------------------------------------------------
- -------------------------------------------------
- -------------------------------------------------

   T        T        T     T        T        T        T
- -------------------------/--3---\-/--3---\-/--3---\-/--3---\-
- -19p15p14-19p15p14-19p15-19p15p14-22p15p14-20p15p14-19p15p14-
- -------------------------------------------------------------
- -------------------------------------------------------------
- -------------------------------------------------------------
- -------------------------------------------------------------

   T        T        T     T        T        T
- -------------------------------------------------
- -19p15p14-19p15p14-19p15-19p15p14-19p15p14-19p15-
- -------------------------------------------------
- -------------------------------------------------
- -------------------------------------------------
- -------------------------------------------------

   T        T        T        T        T        T        T        T        T
- -/--3---\-/--3---\-/--3---\-/--3---\-/--3---\-/--3---\-/--3---\-/--3---\-----------------
- -23p15p11-22p15p11-20p15p11-22p15p11-20p15p11-19p15p11-20p15p11-17p15p11-----------------
- -------------------------------------------------------------------------19--------------
- -----------------------------------------------------------------------------------------
- -----------------------------------------------------------------------------------------
- -----------------------------------------------------------------------------------------

[Riff 11] - [03:48] - [04:01] - [x2]
- ---------------------------------------------------------
- ---------------------------------------------------------
- ---------------------------------------------------------
- -----------------------------------------------------8---
- -0-0-0-0---0---0-0-0-0---0---0-0-0-0---0---0-0-0-0---6---
- -0-0-0-0---0---0-0-0-0---0---0-0-0-0---0---0-0-0-0---8---
PM .................................................

- -----------------------------------------------------------------
- -----------------------------------------------------------------
- -----------------------------------------------------------------
- -----------------------------------------------------------------
- -0-0-0-0---0---0-0-0-0---0---0-0-0-0---0---0-0-0-0---0---0-0-----
- -0-0-0-0---0---0-0-0-0---0---0-0-0-0---0---0-0-0-0---0---0-0-5---
PM ...........................................................

[Riff 12a] - [04:01] - [04:32] - [x4]
- -----------------------------------------------------------------
- -----------------------------------------------------------------
- -----------------------------------------------------------------
- -------------------------------------------------------------8---
- -0-0-0-0---0---0-0-0-0---0---0-0-0-0---0---0-0-0-0---0---0-0-6---
- -0-0-0-0---0---0-0-0-0---0---0-0-0-0---0---0-0-0-0---0---0-0-8---
PM ...........................................................

- -----------------------------------------------------------------
- -----------------------------------------------------------------
- -----------------------------------------------------------------
- -----------------------------------------------------------------
- -0-0-0-0---0---0-0-0-0---0---0-0-0-0---0---0-0-0-0---0---0-0-----
- -0-0-0-0---0---0-0-0-0---0---0-0-0-0---0---0-0-0-0---0---0-0-5---
PM ...........................................................


[Riff 12b, Guitar 1 & 2] - [04:01] - [04:32]
- -----------------------------------------------------------------
- -----------------------------------------------------------------
- -11----------11-\7----/12--------11----------14br------12-----br-
- -----------------------------------------------------------------
- -----------------------------------------------------------------
- -----------------------------------------------------------------
-
- -----------------------------------------------------------------
- -----------------------------------------------------------------
- -14----------14-\11---/15--------14----------17br------15-----br-
- -----------------------------------------------------------------
- -----------------------------------------------------------------
- -----------------------------------------------------------------


- -----------------------------------------------------------------
- -------------------------------------------------------15----11--
- -11----------11-\7----/12--------11----------14b-----------------
- -----------------------------------------------------------------
- -----------------------------------------------------------------
- -----------------------------------------------------------------
-
- -----------------------------------------------------------------
- -------------------------------------------------------19----15--
- -14----------14-\11---/17--------14----------17b-----------------
- -----------------------------------------------------------------
- -----------------------------------------------------------------
- -----------------------------------------------------------------


- -----------------------------------------------------------------
- -----------------------------------------------------------------
- -11----------11-\7----/12--------11----------14br------12-----br-
- -----------------------------------------------------------------
- -----------------------------------------------------------------
- -----------------------------------------------------------------
-
- -----------------------------------------------------------------
- -15----------15-\13---/17--------15----------19br------17-----br-
- -----------------------------------------------------------------
- -----------------------------------------------------------------
- -----------------------------------------------------------------
- -----------------------------------------------------------------


- -----------------------------------------------------------------
- -------------------------------------------------------13b-------
- -11----------11-\7----/12--------11----------14b-----------------
- -----------------------------------------------------------------
- -----------------------------------------------------------------
- -----------------------------------------------------------------
-
- -------------------------------------------------------20b-------
- -15----------15-\13---/17--------15----------19b-----------------
- -----------------------------------------------------------------
- -----------------------------------------------------------------
- -----------------------------------------------------------------
- -----------------------------------------------------------------


[Riff 13] - [04:32] - [04:35]
- -----------------------------------------------------------------
- -----------------------------------------------------------------
- -----------------------------------------------------------------
- -----------------------------------------------------------------
- -0-0-0-0---0---0-0-0-0---0---0-0-0-0---0---0---0-----------------
- -0-0-0-0---0---0-0-0-0---0---0-0-0-0---0---0---0---0-0-----------
PM ...............................................

[Symbols]

PM... Palm Mute notes with (...) under them
AP... Alternate Pick notes with (...) under them
h     Hammer On
p     Pull Off
[ ]   Harmonic
/     Slide Up
\     Slide Down
x     Dead Note
b     Bend
hb    Hold Bend
pb    Pre-Bend
r     Release Bend
(x )  Play Notes x amount of times
~     Let Ring
\\\   Pick Slide Down
///   Pick Slide Up
/ 3 \ Notes are triplets (3 notes in the space of two)
w\    Whammy Bar Down
w/    Whammy Bar Up
wh    Whammy Bar Hold
T     Right Hand Tap
L     Left Hand Tap

:)

            
            
Suggest correction
Creating personal tab
Creating personal tab
You can edit any tab online and save it as your Personal.

You can edit, replace or remove any tab part or add personal notes – all changes will be seen only by you.

Personal tabs can be accessed anytime from any device, even offline.
Learn more »
Give kudos to tab author, rate the tab!
1 2 3 4 5
comments
print report bad tab
guest
You may want to rate the tab now too:
select rating
Wanna post a correction for this tab? Suggest correction