Oops, an error
Loading. Please wait.

Leveler Tab

version 1
version 1

Whole song

Interactive

6,138 views 6 this week
4 commentsread comments
1 2 3 4 5
excellent!
x 4
add to favorites
launch autoscroll
font size
0
reset
how to read this tab
guitar tuner
Tab Pro tools
  • play this tab
  • loop segment
  • change instrument
  • show fretboard
  • metronome
×
Best way to learn
"Leveler"
Autoscroll
slow
fast
+/-
esc
set tempo
stop
Contributor
Difficulty
Tuning
intermediate
C G C F A D
CGCFAD

riff 1 0:02-0:19,2:06-2:22
----------------------------------------------------------------------------|
----------------------------------------------------------------------10-6--|
-----------------------------------------------7--------7-10-7------7-------|
------------------------------7------------5-8---8--5-8---------5-8---------|
-0-5-7-8-5-pm-0-5-7-8-5-*-7-8---8--0-5-7-8---------------------*-----------*|
-----------0------------0--------------------------------------0-----------0|

   _   repeats twice left side end
--/ \---------------|-------------------|
-6-8-6--------------|-------------------|
-------9------------|---_---------------|
---------8-7---5----|--/ \-----------^--|
-------------8---7--|-5-6-5-------8-0-4-|
--------------------|-------8-7-5-------|


Riff 2 'R'represents notes played on right side 2nd time  0:19-0:40
end harmony on right side are same notes as left side just 1 string up
RRRRRRR-------------RRRRRRRR----------RRRRRRRRRRRRRRRRRRRRRRRRRRRR-----------------|
-----------------------------------------------------------------------------------|
----------___------------------------------------___---------7------------------10-|
***-***--/   \----7-------------------****-*-*--/   \----7-8---8--10-10-8-8-7-7----|
000-000-5-6-5-0-5----*-5/7-*-5---7----0000-0-0-5-6-5-0-5---------*-----------------|
000-000-------------0--5/7-0---8---10-0000-0-0-------------------0-----------------|


-----------------------------------------|
-----------------------------------------|
----------___----------------------------|
***-***--/   \----7------------*-*-*-----|
000-000-5-6-5-0-5---*-7---8----0-0-0-----|
000-000-------------0--10---12-0-0-0-----|

Riff 3 left side   0:41-1:07
--------------|-------------------|-----2 times-------------------|
-8 times------|-----------8-11-10-|-------------------------------|
--------------|10-14-9-12---------|-------------------------14----|
--------------|-------------------|-8--10--12----8--10--12----15--|
5---7----8----|-4 times-----------|--10--12--13-*-10--12--13-----*|
--8---10---12-|-------------------|-------------0----------------0|

-------|----2 times-----------------------|
-------|----------------------------------|
-------|----------------------------------|
-*-*-*-|-12---14---15------12--14---15-12-|*-*-*
-0-0-0-|---13---15----17-*---13--15------*|0-0-0
-0-0-0-|-----------------0---------------0|0-0-0
Riff 3 right side
------------|---9 times----------|------twice--------------------------|
-4 times----|--------------------|-------------------------------------|
------------|-------------9-12-10|-------------------------------------|
------------|-12-15-10-14--------|12---14----15------12---14---15-12---|
5---7---8---|--------------------|--13----15----17-*----13--15-------*-|
--8---10--12|--------------------|-----------------0-----------------0-|


------|----twice-----------------------|
------|--------------------------------|
------|-------------------------14-----|
-*-*-*|-8--10--12----8--10--12----15---|*-*-*
-0-0-0|--10--12--13-*-10--12--13-----*-|0-0-0
-0-0-0|-------------0----------------0-|0-0-0


Riff 4 1:07-1:19
--------------------------------------------------------------------|
--------------------------------------------------------------------|
--------------------------------------------------------------------|
-*******************************************************************|
-000-0000-0-0-0-0-000-0000-0-0-0-0-000-0000-0-0-0-0-000-0000-0-0-0-0|
-000-0000-0-0-0-0-000-0000-0-0-0-0-000-0000-0-0-0-0-000-0000-0-0-0-0|

-BBB-R-R-R-B-B-B-BBB-R-R-R-B-B-B-BBB-R-R-R-B-B-B-BBBBBBBBBBBBBB|
---------------------------------------------------------------|
---------------------------------------------------------------|
-**************************************************************|
-000-0-0-0-0-0-0-000-0-0-0-0-0-0-000-0-0-0-0-0-0-000-0000-0-0-0|
-000-0-0-0-0-0-0-000-0-0-0-0-0-0-000-0-0-0-0-0-0-000-0000-0-0-0|


Riff 5 w/riff 4 4 times
-----------------------------------|
---------------------------10------|
222222223333333366666666777--7777--|
000000000000000000000000000--0000--|
-----------------------------------|
-----------------------------------|

Riff 6 2 times
--------------------------------------------------------|
--------------------------------------------------------|
--------------------------------------------------------|
-----\--******************************************--3---|
-0---\--0-0--0-0-0--0-0-0--0-0-0-0-0--0-0-0--0-0-0-7-7-0|
-0-ps---0-0--0-0-0--0-0-0--0-0-0-0-0--0-0-0--0-0-0------|


-----------------------------------------------------|
-----------------------------------------------------|
-----------------------------------------------------|
-********************************************--3-----|
-0-0--0-0-0--0-0-0--00-0-0--0-0--0-0-0-00-0-0-7-7-0--|
-0-0--0-0-0--0-0-0--00-0-0--0-0--0-0-0-00-0-0--------|

Riff 7 w/ Riff 6
x 16-|-x 8--|-x 6-|------|-x 16-|-x 8-|-x 8-|
-----|------|-----|------|------|-----|-----|
-10--|-9----|-12--|14-12-|10----|-9---|-6---|
--0--|-0----|-0---|-0-0--|0-----|-0---|-0---|
-----|------|-----|------|------|-----|-----|
-----|------|-----|------|------|-----|-----|

Riff 8 w/Riff 1                       end right side
right side
---------------------|               |--------------------|
---------------------|cont. as riff 1|--------------------|
---------------------|               |--__----------------|
-*--*-----*----------|               |-/  \---------------|
-0--0-----0---5-----5|               |8-10-8-7-*--*-8--^--|
-0--0-----0---5-----5|               |---------10-7---7 10|

Riff 9 right side
--------------------------|
--------------------------|
---7---10-9-----7--14--12-|
0--x---x--x--0--x---x---x-|
0--5---8--7--0--5--12--10-|
0------------0------------|


Riff 9 left
-----------------------|
-----------------------|
-----------------------|
-0--8----10--10--------|
-0--x-----x---x--------|
-0--8----10--10--------|

Riff 10 w/riff 9 left  2:33
--------------------------------------------------|
---------______---------13---------10---------8---|
---14---/      \-----14----14----7---7------9--9--|
12----15-14-12-14-12-----------8------8--10-----10|
--------------------------------------------------|
--------------------------------------------------|

Riff 11 rythm   twice
----------------------------------------------------------|
----------------------------------------------------------|
--------------------------------------------------**---***|
-*-*-0-*-0-***-0-*-0-*-*--5-5-7---*-*-7---7-----7-77-5-555|
-0-0-0-0-0-000-0-0-0-0-0--7-5-8-0-5-5-8-*-8-***-8-88-7-777|
-0-0---0---000---0---0-0--------0-8-8-8-8-8-888-----------|

twice
----------------------------------------------------------|
-------------------------------///-----------///--///-----|
-----------------------///-///-10-///----///-9----10------|
///-///-///-//////-///-12--7------7--///-7----------------|
-0---5--8---5---8--12----------------10-------------------|
----------------------------------------------------------|


Riff 11 solo
-----------------------------10-10-12-12--13----13----13--|
--------10-10----------10-10----------------15----15----15|
-**-9-9-------9-9-10-10-----------------------14----14----|
-77-------------------------------------------------------|
----------------------------------------------------------|
----------------------------------------------------------|

           ___
          /   \
-17-15--13-15-13--12---12-15|
---------------------15-----|
----------------------------|
----------------------------|
----------------------------|
----------------------------|


-----------------------------10-10-12-12----|
--------10-10----------10-10----------------|
-**-9-9-------9-9-10-10---------------------|
-77-----------------------------------------|
--------------------------------------------|
--------------------------------------------|


-----------------------------------------12-|
-10-10-----11-11--------------------10-13---|
------12-12-----10-10-12-12-10-10-12--------|
--------------------------------------------|
--------------------------------------------|
--------------------------------------------|

-----------------------------10-10-12-12--13----13----13--|
--------10-10----------10-10----------------15----15----15|
-**-9-9-------9-9-10-10-----------------------14----14----|
-77-------------------------------------------------------|
----------------------------------------------------------|
----------------------------------------------------------|

           ___
          /   \
-17-15--13-15-13--12---12-15|
---------------------15-----|
----------------------------|
----------------------------|
----------------------------|
----------------------------|

-----------------------------10-10-12-12----|
--------10-10----------10-10----------------|
-**-9-9-------9-9-10-10---------------------|
-77-----------------------------------------|
--------------------------------------------|
--------------------------------------------|


-----------------------------|
-10-10-----11-11------///-14-|
------12-12-----10-10-12-----|
-----------------------------|
-----------------------------|
-----------------------------|


Riff 12 all pm'd open 6th and 5th


Riff 13

----------------------------|
----------------------------|
-7-----7----7---------------|
-0-----8----8---------------|
-0---------10---------------|
-0--------------------------|


Riff 14
--------------------------------------------------|
------------------------13---------6----------8---|
---14-----14---------14----14----7---7------9--9--|
12-----12-------12-------------8------8--10-----10|
--------------------------------------------------|
--------------------------------------------------|


Riff 15 rythm
evenly downpicked then one note each towards end

----------|
----------|
----------|
-0--3--5--|
-0--1--3--|
-0--------|


Riff 15
x24-|x 8-|----------|----13-12-----13--15---|
----|----|-repeatx3-|-----------------------|
10--|-9--|----------|-10---------10--------7|
0---|-0--|----------|-----------------------|
----|----|----------|-----------------------|
----|----|----------|-----------------------|
comments
print report bad tab
4 comments total. Showing first comments.
0 reply
cslink wrote on July 2 2011, 04:22 pm

amazing tab!
I know its not much of your fault cause abr is unreal on guitar with a thousand riffs but it can be difficult to follow, but hell of a job man!

0 reply
JRohrer14 wrote on August 1 2011, 10:28 am

Sounds perfect bro. Impressive job!

0 reply
darkhero101010 wrote on December 13 2011, 06:00 pm

thank you so much bro

I want to post or [tab]
guest
You may want to rate the tab now too:
select rating
Please do not post tabs as comments. Select "correction" instead!