Oops, an error
Loading. Please wait.

Marianas Trench Bass Tab

version 1
version 1

Whole song

11,817 views 9 this week
5 commentsread comments
1 2 3 4 5
1 last vote to show rating
add to favorites
launch autoscroll
font size
0
reset
guitar tuner
Autoscroll
slow
fast
+/-
esc
set tempo
stop
Help us to improve Ultimate-Guitar.com Take our survey!
×
Author
Difficulty
Tuning
intermediate
C G C F A D
-------------------------------------------------------------------------------
			    Marianas Trench - August Burns Red
-------------------------------------------------------------------------------

Tabbed By : Alex
e-mail: crossa3@yahoo.com

Tuning:CGCF

My first tab ever.  Have fun on the last part :D.  (P.S I know that the breakdowns are 
its just very annoying to put down like 30 0s you know what i mean)


F|--------------|
C|--------------|
G|--------------|
C|--8~--12~-----|

F|----------------------------------------------------------|
C|-----------------------------------------------7----------|
G|--------------88--77--55-0~--000~--000~-----------5-------|
C|--88---8888------------------------------8-10-------------|

F|---------------------------------------------------------------------|
C|--------------------------------------------------------7------------|
G|--------------8---------88--77-55--0~-000~--000~------------5--------|
C|--88----8-10-----8888-----------------------------8-10---------------|

F|-------------------------------------------------|
C|-------------------------------------------------|
G|-----8-5-3-----8-10-5--------------0---------3---|  2x
C|-88---------88------------00-22-3----00-22-3-----|

F|------------------------------------------------------|
C|------------------------------------------------------|
G|------------------------------------------------------|
C|-0000000000000000000000000000000000000000--12/3-------|

F|-----------------------------------------------------------------|
C|-----------------------------------------------------------------|
G|-----------------------------------------------------------------|
C|-000-000-0-0-00000--000--000--0--000--000--0-0--00000-000-000-0--|

C|--------------------------------------------------|
F|--------------------------------------------------|
G|--------------------------------------------------|
C|-000000-3h2--000000-3h2--000000-3h2-000000-8--430-|

C|--------------------------------------------------|
F|--------------------------------------------------|
G|--------------------------------------------------|
C|-000000-3h2--000000-3h2-000000-3h2-000000-8-468---|

C|----------------------------------------------|
F|----------------------------------------------|
G|----------------------------------------------|
C|-8888888888888888888888888--4444444444444444--|


C|-------------------------------------------------------------|
F|-------------------------------------------------------------|
G|-------------------------------------------------------------|
C|-88888888888888888888888888--4444444444444444--11111111111111|

C|--------------------------------------------------------------------------|
F|--------------------------------------------------------------------------|
G|--------------------------------------------------------------------------|
C|-88888888-44444444--88888888-44444444--88888888-44444444-11111111-8888-68-|

C|-------------------|
F|-------------------|
G|-------------------|
C|--8--3-4~--8~-3~-4~|

C|---------------------|
F|---------------------|
G|---------------------| 4x
C|-8888---3333--4444444|

C|-----------------------------68p6-------------------------------------68p6|
F|--------------------------68----------------------------------------68----|
G|---------------------68------------------------------------------68-------|
C|-8~-6-6888-6888-6888----------------6888-6888-4444-6888-6888-6888---------|

C|--------------------|
F|--------------------|
G|----------------4---|
C|-6888--6888--444----|

C|---------------------------68p6-----------|
F|-----------------------68-----------------|
G|-------------------68----------------4----| (play until song ends)
C|-6888-6888-6888-68---------------444---6--|
| /  slide up
| \  slide down
| h  hammer-on
| p  pull-off
| ~  let it ring

Please comment and rate :D
===============================================================================
Suggest correction
Give kudos to tab author, rate the tab!
1 2 3 4 5
comments
print report bad tab
5 comments total. Showing first comments.
0 reply
crossa3 31 Feb 23, 2010 08:24 AM

at the top its supposed to say i know what the breakdowns are. not i know that the breakdowns are. Sorry

0 reply
thunderhawk 535 Jul 02, 2010 03:49 AM

wow this is wrong. like REALLY BAD its missing sooooo much. like actually, did u even listen to the song before u tabbed it? so many fills missing from this. maybe the root notes are there. but dude. im sorry. this is bad

0 reply
crossa3 31 Jul 16, 2010 04:42 PM

really? help me out bro. im all game for constructive criticism/help

guest
You may want to rate the tab now too:
select rating
Wanna post a correction for this tab? Suggest correction