Oops, an error
Loading. Please wait.

Marianas Trench Bass Tab

version 2
version 2

Whole song

8,040 views 6 this week
1 commentread comment
1 2 3 4 5
accurate
x 5
add to favorites
launch autoscroll
font size
0
reset
guitar tuner
Tab Pro tools
  • play this tab
  • loop segment
  • change instrument
  • show fretboard
  • metronome
×
Best way to learn
"Marianas Trench"
Autoscroll
slow
fast
+/-
esc
set tempo
stop
Contributor
Difficulty
Tuning
intermediate
C G C F A D
Written by me, I used the other tab on this site, YouTube covers by McGarren, AND my own 
playing. This is by far the easiest bass for an ABR song


intro
F -------------|
C -------------|
G -------------|
C 8~----12~----|

F --------------------------------------------2--|
C ---------------------------------------------3-|
G ------------8-7-5-7-5-------------------3h5----|
C 88-88888888----------0~-000~-00000000~---------|

F -------10----------------------------------------2--|
C ---7h8--------------------------------------------3-|
G ------------------8-7-5-7-5-------------------3h5---|
C 88--------888-888----------0~-000~-00000000~--------|

F --10-7-----10/12-7-------2-------5---|
C 8-----10-8---------0-2-3---0-2-3-----|  x2
G -------------------------------------|
C -------------------------------------|

F ----------------------------------------|
C ----------------------------------------|
G ----------------------------------------|
C 0000000000000000000(play till slide)12/3

breakdown
F --------------------------------------------------|
C --------------------------------------------------|  x2
G --------------------------------------------------|
C 0-000--000-0-0-00000000-0-000--000-0-0-00000000---|

F ---------------------------------------------------------------|
C ---------------------------------------------------------------|    Timing isn't exactly right.
G ---------------------------------------------------------------|
C 000000003h5000000000(play as many times as necessary)-8-4-3-0--|
                                            Second time:8-4-6-8--|

F ------------------------------------------------------------------------|
c ------------------------------------------------------------------------|
G ------------------------------------------------------------------------|
C 888888888(play until guitar changes)444444444(play until guitar changes, it plays the 8's again)

F ------------------------------------------------------------------|
C ------------------------------------------------------------------|
G ------------------------------------------------------------------|
C -SAME AS ABOVE EXCEPT IT CHANGES TO THE FIRST FRET ON THIS STRING-

F -----------------------------------|
C -----------------------------------|
G -----------------------------------|
C 8(x16)-4(x16)-PLAY UNTIL SOLO ENDS-|

F ---------------------------------|
C ---------------------------------| Yes, the slides there. 
G ---------------------------------| Played a little off timing with the guitar.
C 8---3---4~----8~---3~---4~---12--|8 SLIDE!

F ------------------------------------------------|
C ------------------------------------------------|
G ------------------------------------------------|
C 8-888-888888--3-333-333333-4-444444-44444444444-| x4 Here it comes...

F ----------------------------------------6h8p6-|
C ------------------------------------6h8-------|
G --------------------------------6h8-----------|
C 8~---6h8888888-6h8888888-6h8888---------------|

F --------------------------|
C --------------------------|
G --------------------------|
C 6h8888888-6h8888888-44-44-|

F -----------------------------------6h8p6-|
C -------------------------------6h8-------|
G ---------------------------6h8-----------|
C 6h8888888-6h8888888-6h8888---------------|

F -----------------------------|
C -----------------------------|
G --------------------------6~-|
C 6h8888888-6h8888888-44-44----|


F -----------------------------------6h8p6-|
C -------------------------------6h8-------|
G ---------------------------6h8-----------|
C 6h8888888-6h8888888-6h8888---------------|

F --------------------------------|
C --------------------------------|
G --------------------------6~----| play till song ends
C 6h8888888-6h8888888-44-44----4~-|

RATE, PLEASE, DO IT. Questions: drewhillkc96@yahoo.com
comments
print report bad tab
1 comment total.
0 reply
RAVENOUSRHINOS wrote on March 3 2011, 07:11 pm

I totally typed some of this wrong. The end section especially. My bad, all.

I want to post or [tab]
guest
You may want to rate the tab now too:
select rating
Please do not post tabs as comments. Select "correction" instead!