Oops, an error
Loading. Please wait.

Meddler Bass Tab

version 1
version 1

Whole song

9,329 views 3 this week
1 commentread comment
1 2 3 4 5
accurate
x 5
add to favorites
launch autoscroll
font size
0
reset
guitar tuner
Tab Pro tools
  • play this tab
  • loop segment
  • change instrument
  • show fretboard
  • metronome
Autoscroll
slow
fast
+/-
esc
set tempo
stop
Contributor
Difficulty
Tuning
intermediate
C G C F A D
====================================
August Burns Red – Meddler Bass Tab
====================================
Tuning: Drop C

|--------------|
|--------------|
|--------------|
|-0~-3~-8~-5~--|


|--------------------------------------|
|--------------------------------------|
|--------------------------------------|
|-00000000-33333333-88888888-55555555--| x3


|--------------------------------------|
|--------------------------------------|
|-55555555-----------------------------|
|----------33333333-88888888-55555555--|


|-------------------------------------|
|-------------------------------------|
|-------------------------------------|
|-00000000-33333333-88888888-5555555--|


|------------------------------------------------------------------------------|
|------------------------------------------------------------------------------|
|---------------------------------53101-111111111-11111111-333333333-33333333--|
|-000000000-00000000-000000000-035---------------------------------------------|


|-----------------------------------------------------------|
|-----------------------------------------------------------|
|---------------------------------53101-111111111-11111111--|
|-000000000-00000000-000000000-035--------------------------|


|--------------------------------------------------------|
|--------------------------------------------------------|
|-------------------------------------------------53101--|
|-55555555-55555555-00000000-00000000-00000000-035-------|

(These two lines above and below are repeated twice)

|--------------------------------------|
|--------------------------------------|
|-11111111-11111111-33333333-33333333--|
|--------------------------------------|

|-----------------|
|-----------5-----|
|-5~-----3---5-2--|
|-0~-0--1-53--3---|

|-----------------------------------------5------|
|--------------------------------------3---5--2--|
|-------------------------------------1-53—-3----|   x3
|-00000-000000-00000-00000-00000-0000------------|


|------------------------------------------------------------------------------------------|
|------------------------------------------------------------------------------------------|
|------------------------------------------------------------------------------------------|x2
|-0000000000-0~00000000-00-00-0-00-000-0000000000000000-0000-00-00-00000-00000-00-00-0-0-0-|

|--------------|
|--------------|
|-------5~-3~--|
|-3~-8~--------|


|-----------------------------------|
|-----------------------------------|
|-------------------55555555-33333--|
|-33333333-88888888-----------------|


|--------------------------------------|
|--------------------------------------|
|-------------------55555555-33333333--| x2
|-33333333-88888888--------------------|


|--------------------------------------|
|--------------------------------------|
|-55555555-------------------33333333--| x2
|----------33333333-88888888-----------|


|--------------------------------------|
|--------------------------------------|
|-------------------55555555-33333333--|
|-33333333-88888888--------------------|


|----------------------------------|
|----------------------------------|
|----------------------------------|
|-000000033333333-888888855555555--|


|------------5-----|
|---------3---5-2--|
|-5~-----1-53--3---|
|-0~--0------------|

|-----------------------------------------5------|
|--------------------------------------3---5--2--|
|-------------------------------------1-53—-3----|   x2
|-00000-000000-00000-00000-00000-0000------------|


|------------------------------------------------------------------|
|------------------------------------------------------------------|
|------------------------------------------------------------------| x2
|-0000~0~0~00~0~0~0~0000~0~0~00~0~0~0~0000~0~0~00~0~0~0~-----------|


|------------------------------------|
|------------------------------------|
|------------------------------------|
|-0000~0~0~00~0~0~0~000~0~0~00~0~0~--|

|----------------------------------------------------|
|----------------------------------------------------|
|----------------------------------------------------|
|-0000~0~0~00~0~0~0~0000~0~8~88~8~8~55555~5~5~55~5~--|

|------------------------------------------------------------|
|------------------------------------------------------------|
|------------------------------------------------------------|
|-0~0~0000~0~0~00~0~0~8888~8~8~88~8~5~5~55555~5~0~00~0~0~0~--|

|------------------------------------|
|------------------------------------|
|------------------------------------|
|-0000~0~0~00~0~8~8~888~8~5~55~5~5~--|

|----------------------------------------------------|
|----------------------------------------------------|
|----------------------------------------------------|
|-0000~0~0~00~0~0~0~0000~0~8~88~8~8~8~5555~5~5~55~5--|
comments
print report bad tab
1 comment total.
0 reply
Alpha_Wolf wrote on November 19 2010, 03:48 pm

You forgot the epic slide!

I want to post or [tab]
guest
You may want to rate the tab now too:
select rating
Please do not post tabs as comments. Select "correction" instead!