Oops, an error
Loading. Please wait.

Meddler Tab

version 1
version 1

Whole song

102,707 views 54 this week
12 commentsread comments
1 2 3 4 5
x 32
add to favorites
launch autoscroll
font size
0
reset
how to read this tab
guitar tuner
Autoscroll
slow
fast
+/-
esc
set tempo
stop
Help us to improve Ultimate-Guitar.com Take our survey!
×
Author
Difficulty
Tuning
intermediate
C G C F A D
CGCFAD
   in this part u tremolo pick the second section, 2 strokes per note
D|-----------------------------------------------------------|
A|-----------------------------------------------------------|
F|-------------------------7---------------9---------------10|
C|-----------------7-0-7-0---0-7-0-7-0-7-0---0-7-0-7-0-7-0---|
G|-0--3--8--5------------------------------------------------|
C|-0--3--8--5-x2---------------------------------------------|

D|-----------------------------------------------------------|
A|-----------------------------------------------------------|
F|-----------------------------------------------------------|
C|-0-7-0-5h7p5p0-5h7p5p0-8p0-8h10p8p0-x2---------------------|
G|-----------------------------------------------------------|
C|-----------------------------------------------------------|

                                        u can play the 17 or the 19 either note it sounds 
  both ways
D|-----------------------------------------------------------|
A|-------------------------------------17or------------------|
F|-------14----17----------------14-------19-----------------|
C|-14-15----15----15-14-15-14-15----15-------15-14-15--------|
G|-----------------------------------------------------------|
C|-----------------------------------------------------------|

D|-----------------------------------------------------------|
A|-------------------------------------17or------------------|
F|-------14----17----------------14-------19-----------------|
C|-14-15----15----15-14-15-14-15----15-------15-14-15--------|
G|-----------------------------------------------------------|
C|-----------------------------------------------------------|

D|-----------------------------------------------------------|
A|------------17---------------------------------------------|
F|---14---------17-------------------------------------------|play that twice
C|------15-14------15-14-------------------------------------|
G|-17--------------------------------------------------------|
C|-----------------------------------------------------------|

  yer gonna have to figure out the rhythm ur self because im at work right now haha also 
  gonna have to figure out the palm muting not hard tho
D|-----------------------------------------------------------|
A|-----------------------------------------------------------|
F|----------------------10-9----------------------10-9~~-----|
C|-------10----12------------------10----12------------------|
G|-0-000----00----00-000--0--0-000----00----00-000--0--------|
C|-0-000----00----00-000--0--0-000----00----00-000--0--------|

D|----------------------------------------------------------------|
A|----------------------------------------------------------------|
F|----------------------10-9-----------9------12------------12--14|
C|-------10----12-------------------------------------------------|
G|-8-888----88----88-888--8--10-101010---1010----1010-101010--10--|
C|-8-888----88----88-888--8--10-101010---1010----1010-101010--10--|

D|-----------------------------------------------------------|
A|-----------------------------------------------------------|
F|----------------------10-9----------------------10-9-------|
C|-------10----12------------------10----12------------------|
G|-0-000----00----00-000--0--0-000----00----00-000--0--------|
C|-0-000----00----00-000--0--0-000----00----00-000--0--------|

D|-----------------------------------------------------------|
A|-----------------------------------------------------------|
F|-----------------------10-9--------------------------------|
C|-------10----12-----------------------8-7------------------|
G|-8-888----88----88-888---8---101010---5-5------------------|
C|-8-888----88----88-888---8---101010---5-5------------------|

D|-----------------------------------------------------------|
A|-----------------------------------------------------------|
F|-----------------------------1010-99-----------------------|
C|-----1010-1212-----1010-1212-------------------------------|
G|-000-----------000-----------------------------------------|
C|-000-----------000------------------x2---------------------|

D|---------------------------------------------------------------------------|
A|---------------------------------------------------------------------------|
F|----------------------------1010-99--------99-1212--------99-12-17171717---|
C|-----1010-1212-----1010-1212-----------------------------------------------|
G|-888-----------888------------------101010---------101010------------------|
C|-888-----------888------------------101010---------101010------------------|
^^^this is played twice but the second time around it slightly different. if u listen to 
song u can tell

  and now for the weird part.... this is pretty much spot on in my opinion but this part 
  takes some finesse
D|-----------------------------------------------------------------|
A|-----------------------------------------------------------------|
F|--------------------------------------------------------------19-|
C|--------------------------7-7h8p7p0-10p0-10p0-14p0-14p0-17-19----|
G|-5h7/0-8p0-8h10-7p0-7h8h10---------------------------------------|
C|-----------------------------------------------------------------|

  at the end of this part tremolo pick 2 times each note with slight palm muting, also the 
  part to this is played in the transition to the break down
D|-----------------------------------------------------------------|
A|-----------------------------------------17----------------------|
F|--------------------------------14----------17-------------------|
C|--------------------------7--12----15-14-------15-14-------------|
G|-5h7/0-8p0-8h10-7p0-7h8h10---------------------------------------|
C|-----------------------------------------------------------------|

[Breakdown]  
(figure it out)
D|-----------------------------------------------------------|
A|-------------10----------------------13--------------------|
F|-------10----------------------10--------------------------|
C|-10-12----12----12-10-12-10-12----12----12-10-12-----------|
G|-----------------------------------------------------------|
C|-----------------------------------------------------------|

D|-----------------------------------------------------------|
A|-------------10--------------------------------------------|
F|-------10------------------10----9-------------------------|
C|-10-12----12----12-10-12------12---------------------------|
G|-------------------------13--------------------------------|
C|------------------------------------x2---------------------|

D|----------------------------------------------------------13---------------------10---------|
A|-10-8-------------------------------10--------------10-------13-10---------10-13----13-10---|
F|------9--------7---10-----------7------7/9----10-12----10----------10-9-12----------------12|
C|--------10-7-8---8----8-7-8-7-8---8--------10-----------------------------------------------|
G|--------------------------------------------------------------------------------------------|
C|--------------------------------------------------------------------------------------------|

D|---------------------------------------------------13---------------------10---------|
A|-----------------------------10--------------10-------13-10---------10-13----13-10---|
F|--------7---10-----------7------7/9----10-12----10----------10-9-12----------------12|
C|----7-8---8----8-7-8-7-8---8--------10-----------------------------------------------|
G|-------------------------------------------------------------------------------------|
C|-------------------------------------------------------------------------------------|x3

[Solo]
D|-----------------------------------------------------------|
A|-10h13p10-----------------------------------------10/13----|
F|-------------7/10-10-10-9h10p9h10p9h10p9h10----10----------|
C|----------12--------------------------------12-------------|
G|-----------------------------------------------------------|
C|-----------------------------------------------------------|

D|-------------------------15~~-13-15-17-13-15-17-13-15/22-20--|
A|-------------------15-13-------------------------------------|
F|-------14-15-14----------------------------------------------|
C|-12-15----------15-------------------------------------------|
G|-------------------------------------------------------------|
C|-------------------------------------------------------------|

D|-13h15p13-------------------12h13p12-----------------------|
A|----------15-------------15----------13--------------------|
F|-------------14----12-14----------------12-----------------|
C|----------------15---------------------------------10------|
G|-------------------------------------------12-10-12--------|
C|-----------------------------------------------------------|

D|-----------------------------------------------------------|
A|-----------------------------------------------------------|
F|-----------------------------------------------------------|
C|-----------------------7-10/15-14-15-14-15-19--------------|
G|-5-8/12-10-12-10-12-15-------------------------------------|
C|-----------------------------------------------------------|

D|-------------------13-12--20--------------------------------|
A|-------13----13--------------20-17--------------------------|
F|----14----14----14-----------------17-----------------------|
C|-15-----------------------------------17--------------------|
G|-----------------------------------------19-15--------------|
C|------------------------------------------------------------|

  tremolo pick each note twice slight palm muting
D|-------------------------------------------------------------------------|
A|-------------------------------------------------------------------18-17-|
F|-------------------------------------------------14-15-17-14-15-17-------|
C|-12-14-15-12-14-15-12-14-15-17-19-15-17-19-15-17-------------------------|
G|-------------------------------------------------------------------------|
C|-------------------------------------------------------------------------|

D|-----------------------------------------------------------|
A|-----------------------------------------------------------|
F|-17--------------------------------------------------------|
C|----17-----------------------------------------------------|
G|-------19-15-12-8------------------------------------------|
C|-----------------------------------------------------------|

back into the weird part for a few more times then it goes into open palm muted notes, 
gonna have to figure out the rhythm on that part


D|--------------------------------------------------------------------------|
A|--------------------------------------------------------------------------|
F|-------------------------14-10h12p10--------------------------------------|
C|-12-12-10h12p10h12-12-15-------------12-----12-10h12p10h12-7-7-8-8h10p8h10|
G|----------------------------------------13/-------------------------------|
C|--------------------------------------------------------------------------|
Suggest correction
comments
print report bad tab
12 comments total. Showing first comments.
-1 reply
cslink 151 Aug 25, 2009 05:44 PM

100% correct?!?!?
how high were u when u tabbed this out?!
sorry bro

0 reply
IbanezRGX 16 Oct 11, 2009 02:09 PM

cslink
do you suck at guitar?
because if you play the song with these tabs you'll find that the tabs are accurate

+1 reply
WatsonX40 16 Oct 22, 2009 10:24 AM

looks good to me. even if its not 100% its still gives you an idea of how to play the song. so for that thanks man

guest
You may want to rate the tab now too:
select rating
Wanna post a correction for this tab? Suggest correction