Oops, an error
Loading. Please wait.

Meridian Tab

version 1
version 1

Solo

Whole song

Interactive

3,268 views 1 this week
3 commentsread comments
1 2 3 4 5
3 more votes to show rating
add to favorites
launch autoscroll
font size
0
reset
how to read this tab
guitar tuner
Autoscroll
slow
fast
+/-
esc
set tempo
stop
Help us to improve Ultimate-Guitar.com Take our survey!
×
Author
Difficulty
Tuning
novice
C G C F A D
this tab is for the intro solo apx 1 minute into the song, the ending is the only 
part im not 100% on

D---------------------------1010101010101010-------------------------------------|
A----------88888888----------------------------------888888-11-11-10101010101010-|
F--77777777---------77777777~~~~~~~~~~~~~~---77777777----------------------------|
C--------------------------------------------------------------------------------|
G--------------------------------------------------------------------------------|
C--------------------------------------------------------------------------------|

D----------------------------------1515151515151515----------------18181818-17171717-|
A-1515151515151515-1515151515151515----------------1515151515151515------------------|
F------------------------------------------------------------------------------------|
C------------------------------------------------------------------------------------|
G------------------------------------------------------------------------------------|
C------------------------------------------------------------------------------------|

D---------------------------------------------------------------------------------|
A-1515151515151515----------------------------------------------------------------|
F------------------1515151515151515-10h14p10h12-(4 times)-12h15p12h14-(4 times)---|
C------------------------------------------------------------------------------0~-|
G------------------------------------------------------------------------------0~-|
C------------------------------------------------------------------------------0~-|
Suggest correction
Give kudos to tab author, rate the tab!
1 2 3 4 5
comments
print report bad tab
3 comments total.
+2 reply
Krauser 176 Aug 19, 2009 05:41 PM

D---------------------------------------------------------------|
A--------------------------X4----------X4----------X4-----------|
F--1515151515151515----12h14p12h14-14h15p14h15-15h17p15h17------|
C------------------------------------------------------------0~-|
G------------------------------------------------------------0~-|
C------------------------------------------------------------0~-|

I believe this I the correct ending that you weren't sure about. I'm almost positive thats the way it's played. Also, good job. And, I feel I need to explain myself cause someone will ask but the X4 just means to play the pattern 4 times.

0 reply
UberBlood 10 Sep 17, 2009 07:18 PM

haha...this is shit...the other one is waaay better.

0 reply
cslink 151 Jul 28, 2010 08:59 PM

how is that shit at all?? can't u just not play or do you know know what Drop C means?
dumb ass

guest
You may want to rate the tab now too:
select rating
Wanna post a correction for this tab? Suggest correction