Oops, an error
Loading. Please wait.

Meridian Tab

version 2
version 2

Solo

Whole song

Interactive

3,646 views 1 this week
3 commentsread comments
1 2 3 4 5
x 3
add to favorites
launch autoscroll
font size
0
reset
how to read this tab
guitar tuner
Autoscroll
slow
fast
+/-
esc
set tempo
stop
Help us to improve Ultimate-Guitar.com Take our survey!
×
Author
Difficulty
novice
this is the clean guitar about 1:36 in

e---------------------------------------------------------------------|
B---------------------------------------------------------------------|
G-12-12-12-12-12-------13-13-13-13--12-12-----------------------------|
D----------------10h12--------------------13-13--10-10-10-10-10-10-10-|
A---------------------------------------------------------------------|
E---------------------------------------------------------------------|

e-----------------------------------------------------------------------------|
B-----------------------------------------------------------------------------|
G-----------------------------------------------------------------------------|
D-13-13--10-10-8-8h10-10-10---------------------------------------------------|
A-----------------------------------------------------------------------------|
E-----------------------------------------------------------------------------|
Suggest correction
Give kudos to tab author, rate the tab!
1 2 3 4 5
comments
print report bad tab
3 comments total.
+1 reply
Kbg4213711 10 Jul 23, 2009 04:05 PM

this isnt the right scale, i figured out the whole song and plan on posting it up here soon.

0 reply
gl1tchzz 10 Aug 02, 2009 06:15 PM

Hey im pretty sure the Correct thing is..

e---------------------------------------------------------------------|
B---------------------------------------------------------------------|
G-14-14-14-14-14-------14-15-15-15-15-14-14---------------------------|
D---------------12/15----------------------15-15-12-12-12-12-12-12-12|
A---------------------------------------------------------------------|
E---------------------------------------------------------------------|

e---------------------------------------------------------------------|
B---------------------------------------------------------------------|
G-10-10---------------------------------------------------------------|
D-------12-12-10-10-12-12-12-----------------------------------------|
A---------------------------------------------------------------------|
E---------------------------------------------------------------------|

-1 reply
TheUsedRocker 307 Feb 03, 2010 04:09 PM

guys, he's probably playing it in Drop D, as it's just two frets lower to get the same sound in Drop D as it would be two frets higher in Drop C.

guest
You may want to rate the tab now too:
select rating
Wanna post a correction for this tab? Suggest correction