Oops, an error
Loading. Please wait.

Meridian Tab

version 1
version 1

Whole song

Interactive

29,002 views 6 this week
10 commentsread comments
1 2 3 4 5
x 8
add to favorites
launch autoscroll
font size
0
reset
how to read this tab
guitar tuner
Autoscroll
slow
fast
+/-
esc
set tempo
stop
Help us to improve Ultimate-Guitar.com Take our survey!
×
Author
hey i noticed not one has tab this flippin awesome song so i thought i would
 try, hope its ok, im not very good at tabbing but i gave it a go, some bits
 are a tad off. any corrections let me know :) its played in DROP C

. = palm mute
t = tapping
h = hold
p = pause
s = slide
~ = ring out

0:00 - 0:17
|----------------------------|
|--3~---3~---3~--------------|
|--2~---3~---2~--------------|
|--0~---0~---0~--------------|x2
|--0~---0~---0~--------------|
|----------------------------|


Palm muted 0:18 - 0:45
|------------------------------|
|------------------------------|
|------------------------------|    
|-------0(X8)------------------|
|-1(x8)------0(X16)------------|
|------------------------------|
  .     .    .

Tremolo 0:46 - 0:59
|------------------------------------------------|
|------------------------------------------------|
|------------------------------------------------|
|-------0(x16)--------------0(x14)--8(x2)-7(x16)-|
|-1(x16)------0(x32)--1(x16)---------------------|
|------------------------------------------------|

Single strokes 1:00 - 1:14
|------------------------------------------------------|
|------8(X8)-----15(X8)-----8(X6)-11(X2)-10(X8)-15(x8)-|
|-7(X8)-----7(X8)------7(X8)---------------------------|
|------------------------------------------------------|
|------------------------------------------------------|
|------------------------------------------------------|

1:14 - 1:24
|-------15(x8)------18(x3)-17(x3)--------------------|
|-15(x8)------15(x8)--------------15(x8)-11(x8)------|
|----------------------------------------------------|
|----------------------------------------------------|
|----------------------------------------------------|
|----------------------------------------------------|


Tapping 1:25 - 1:34
|-----------------------------------------------------------|
|-----------------------------------------------------------|
|---14t12p10h(X4)-15t14p12h(X2)-17t15p14h(X2)---------------|
|-----------------------------------------------------------|
|------------------------------------------------------0~---|
|------------------------------------------------------0~---|

Clean guitar 1:35 - 1:59
|------------------------------------------------------------------|
|------------------------------------------------------------------|
|-14(x5)-7-10-15(x6)-14(x2)-10(x2)-7(x8)-10(x2)-7(x2)-5(x2)-7(x3)--| x3
|------------------------------------------------------------------|
|------------------------------------------------------------------|
|------------------------------------------------------------------|

2:00 - 2:07 
|------------------------------------------------------------------|
|------------------------------------------------------------------|
|-14(x5)-7-10-15(x6)-14(x2)-10(x2)-7(x8)-10(x2)-7(x2)-1(x2)-3(x3)--|
|------------------------------------------------------------------|
|------------------------------------------------------------------|
|------------------------------------------------------------------|


Clean guitar 2:08 - 2:16
|----------------------------|
|----------------------------|
|-7--------------------------|
|-7-x24--20-x8---------------|
|-5------18------------------|
|----------------------------|

2:16 - 2:47                                                         \
|------------------------------------------------------------------| |
|------------------------------------------------------------------| |
|------------------------------------------------------------------| |
|------------------------10~---------------------------7~----------| |
|------------------------8~----------------------------5~----------| |
|--0-0-0-0-0-0-0-0-0-0-0---0-0-0-0-0-0-0-0-0-0-0-0-0-0---0-0-0-----| |
                                                                     | x2
continued                                                            |
|-----------------------------------------|                          |
|-----------------------------------------|                          |
|-----------------------------------------|                          |
|-----------------------10~---------------|                          |
|-----------------------8~-------8-x16----|                          |
|-0-0-0-0-0-0-0-0-0-0-0----0-0-0-8--------|                          |
                                                                    /

2:48 - 3:04
|----------------------------5~------5-8~----8----5~----5-8-----8-------|
|-------6~----6---6--------6-------6-------6----6-----6-------6---------|
|-----7-----7------------7-------7------------7-----7-------------------|
|---7-----------7-------------------------------------------------------|
|-5----------------------------------------------------------------8-x8-|
|------------------------------------------------------------------8----|

3:04 - 3:17    vv 3:17 - 3:19         
|-------------|---------------|
|-------------|---------------|
|-------------|---------------|
|-7-----------|---------------|
|-5-x48--8-x8-|-8-x8----------|
|-0------8----|-8-------------|
               ^^distortion kicks in


3:20 - 3:51
|----------------------------|
|----------------------------|
|----------------------------|
|----------------------------|
|-0--------------------------|
|-0--------------------------|


3:52 - 4:07
|-18s15-------18s15s10------10s7s3s5--|
|------15(x16)--------10(x8)----------|
|-------------------------------------|
|-------------------------------------| x2
|-------------------------------------|
|-------------------------------------|

4:08 - 4:27
|-18s15-------18s15s10------10s8s7s5s1~-5~-(pause for a while)-5(x8)-3(x8)-|
|------15(x16)--------10(x8)-----------------------------------------------|
|--------------------------------------------------------------------------|
|--------------------------------------------------------------------------|
|--------------------------------------------------------------------------|
|--------------------------------------------------------------------------|

4:28 - end                                                         \
|-------------------------------------------|                       \
|--11(x5)-----12(x6)-11(x2)-----------------|                        \
|--------7-10---------------10(x2)-7(x16)---|                         |
|-------------------------------------------|                         | 
|-------------------------------------------|                         |Played
|-------------------------------------------|                         |till
                                                                      |the
continued                                                             |end
|------------------------------------------------------------------|  |
|-11(x5)-----12(x6)-11(x2)-----------------------------------------|  |
|-------7-10--------------10(x2)-7(x8)-10(x2)-7(x2)-5(x2)-7(x3)----|  |
|------------------------------------------------------------------|  |
|------------------------------------------------------------------| / 
|------------------------------------------------------------------|/
                                                                    

Suggest correction
comments
print report bad tab
10 comments total. Showing first comments.
-1 reply
Darkness Fades 269 Aug 31, 2009 11:26 PM

you mind if i make a gp5 out of this?

0 reply
Nadnerb23 258 Sep 01, 2009 03:13 AM

nahh man go for it, just i think the intro chords are a tad off

-1 reply
Darkness Fades 269 Sep 01, 2009 04:46 PM

they sound right, but it's hard to make that sound on gp5. 5/5 btw.

guest
You may want to rate the tab now too:
select rating
Wanna post a correction for this tab? Suggest correction