Oops, an error
Loading. Please wait.

Missing This Oppurtunity Tab

309 views 1 this week
no commentswrite comment
1 2 3 4 5
please rate
add to favorites
launch autoscroll
font size
0
reset
how to read this tab
guitar tuner
Tab Pro tools
  • play this tab
  • loop segment
  • change instrument
  • show fretboard
  • metronome
×
Best way to learn
"Missing This Oppurtunity"
Autoscroll
slow
fast
+/-
esc
set tempo
stop
Contributor
Difficulty
Tuning
intermediate
C G C F A D

Artist: August Burns Red
  Song: Missing This Oppurtunity
 Album: Looks Fragile After All
Tuning: Drop C(C G C F A D)

I am the only person on the internet that has tabbed this,
but I owe a big thanks to YouTube user: mesuhlikemusic.
He covered the song and I did my best to transcribe him.
If there are any mistakes please do let me know. Enjoy! :)

[00:00-00:07]
D|-----------------|x4
A|-----------------|
F|-7-777-7-777-7-7-|
C|-7-777-7-777-7-7-|
G|-5-555-5-555-5-5-|
C|-----------------|

[00:07-00:14]
D|-----------------------------------|------------------|x2(second part)
A|-----------------------------------|------------------|
F|-7-777-7-777-7-7-9-999-10-101010-9-|-9-10-12-10-9h109-|
C|-7-777-7-777-7-7-9-999-10-101010-9-|------------------|
G|-5-555-5-555-5-5-7-777--8--8-8-8-7-|------------------|
C|-----------------------------------|------------------|

[00:14-00:21]
D|-----------------------------------|---------------------|x2(second part)
A|-----------------------------------|-10-11-13-11-10h1110-|
F|-7-777-7-777-7-7-9-999-10-101010-9-|---------------------|
C|-7-777-7-777-7-7-9-999-10-101010-9-|---------------------|
G|-5-555-5-555-5-5-7-777--8--8-8-8-7-|---------------------|
C|-----------------------------------|---------------------|

[00:21-00:28]
D|-----------------------------------|------------------|x2(second part)
A|-----------------------------------|------------------|
F|-7-777-7-777-7-7-9-999-10-101010-9-|-9-10-12-10-9h109-|
C|-7-777-7-777-7-7-9-999-10-101010-9-|------------------|
G|-5-555-5-555-5-5-7-777--8--8-8-8-7-|------------------|
C|-----------------------------------|------------------|

[00:28-00:35]
D|-----------------------------------|---------------------|x2(second part)
A|-----------------------------------|-10-11-13-11-10h1110-|
F|-7-777-7-777-7-7-9-999-10-101010-9-|---------------------|
C|-7-777-7-777-7-7-9-999-10-101010-9-|---------------------|
G|-5-555-5-555-5-5-7-777--8--8-8-8-7-|---------------------|
C|-----------------------------------|---------------------|

[00:35-00:49]
D|-------------------|-----------------------------------|x2
A|-------------------|-----------------------------------|
F|-------------------|-1010101010101010/1212121212121212-|
C|-3-000-2-00-2/3   -|--x-x-x-x-x-x-x-x/-x-x-x-x-x-x-x-x-|
G|-3-000-2-00-2/3 x2-|--8-8-8-8-8-8-8-8/1010101010101010-|
C|-3-000-2-00-2/3   -|-----------------------------------|
     ...   ..

[00:49-01:02]
D|-------------------|-----------------------------------|x2
A|-------------------|-----------------------------------|
F|-------------------|-1010101010101010/1212121212121212-|
C|-8-000-7-00-7/8   -|--x-x-x-x-x-x-x-x/-x-x-x-x-x-x-x-x-|
G|-8-000-7-00-7/8 x2-|--8-8-8-8-8-8-8-8/1010101010101010-|
C|-8-000-7-00-7/8   -|-----------------------------------|
     ...   ..

[01:02-01:08]
D|-----------------------------|---------------------------|
A|-----------------------------|---------------------------|
F|----10----9----7----9----9\7-|----10----9----7----5----5-|
C|-00--8-00-7-00-5-00-7-00-7\5-|-00--8-00-7-00-5-00-3-00-3-|
G|-00--8-00-7-00-5-00-7-00-7\5-|-00--8-00-7-00-5-00-3-00-3-|
C|-00--8-00-7-00-5-00-7-00-7\5-|-00--8-00-7-00-5-00-3-00-3-|
   ..    ..   ..   ..   ..       ..    ..   ..   ..   ..

[01:08-01:15]
D|-----------------------------------------------------------------|
A|-----------------------------------------------------------------|
F|-----------------------------------------------------------------|
C|-7-7-7-7-7-7-7-7-3-3-3-3-3-3-3-3-0-0-0-0-0-0-0-0-2-2-2-2-2-2-2-2-|
G|-----------------------------------------------------------------|
C|-----------------------------------------------------------------|

[01:15-01:21]
D|-----------------------------|---------------------------|
A|-----------------------------|---------------------------|
F|----10----9----7----9----9\7-|----10----9----7----5----5-|
C|-00--8-00-7-00-5-00-7-00-7\5-|-00--8-00-7-00-5-00-3-00-3-|
G|-00--8-00-7-00-5-00-7-00-7\5-|-00--8-00-7-00-5-00-3-00-3-|
C|-00--8-00-7-00-5-00-7-00-7\5-|-00--8-00-7-00-5-00-3-00-3-|
   ..    ..   ..   ..   ..       ..    ..   ..   ..   ..

[01:21-01:27]
D|---------------------------------|-------------------------------|
A|---------------------------------|-------------------------------|
F|---------------------------------|----12----10----9----10----9\7-|
C|-7-7-7-7-7-7-7-7-3-3-3-3-3-3-3-3-|-00-10-00--8-00-7-00--8-00-7\5-|
G|---------------------------------|-00-10-00--8-00-7-00--8-00-7\5-|
C|---------------------------------|-00-10-00--8-00-7-00--8-00-7\5-|
                                     ..    ..    ..   ..    ..
[01:27-01:52]
D|-------------------------------|----------------|x2
A|-------------------------------|----------------|
F|-------------------------------|-10    -/12    -|
C|-5-555-555-555/7-8-888-888-888-|--x x16-/-x x16-|
G|-5-555-555-555/7-8-888-888-888-|--8    -/10    -|
C|-5-555-555-555/7-8-888-888-888-|----------------|

[01:52-02:05]
D|-------------------------------------|x4
A|-------------------------------------|
F|-10-10-10-10-9-9-9-9-7-7-7-7-7-7-7-7-|
C|-------------------------------------|
G|-------------------------------------|
C|-------------------------------------|

[02:05-02:19]
D|------------------|x4
A|------------------|
F|------------------|
C|------------------|
G|-00-0000000-00000-|
C|-00-0000000-00000-|
   .. ....... .....

[02:19-02:31]
D|-------------------------------------------|x2
A|---------6---------6---------6----------11-|
F|-------9---------9---------9---------14----|
C|-0-0-0-----0-0-0-----0-0-0-----0-0-0-------|
G|-0-0-0-----0-0-0-----0-0-0-----0-0-0-------|
C|-0-0-0-----0-0-0-----0-0-0-----0-0-0-------|
   . . .     . . .     . . .     . . .

[02:31-02:41]
D|-------------------------------------------|-------------|
A|----------11----------11----------11-------|-------18-17-|
F|-------14----------14----------14----------|-14-15-------|
C|-0-0-0-------0-0-0-------0-0-0-------0-0-0-|-------------|
G|-0-0-0-------0-0-0-------0-0-0-------0-0-0-|-------------|
C|-0-0-0-------0-0-0-------0-0-0-------0-0-0-|-------------|
   . . .       . . .       . . .       . . .

[02:41-02:44]
D|-------------------------------------------------|
A|-------------------------------------------------|
F|-0h2p0-0h2p0-0h3p0-0h5p0-0h7p0-0h8p0-0h7p0-0h5p0-|
C|-------------------------------------------------|
G|-------------------------------------------------|
C|-------------------------------------------------|

[02:44-02:47]
D|--------------------------------------------------|
A|--------------------------------------------------|
F|-0h2p0-0h3p0-0h5p0-0h7p0-0h8p0-0h10p0-0h8p0-0h7p0-|
C|--------------------------------------------------|
G|--------------------------------------------------|
C|--------------------------------------------------|

[02:47-02:51]
D|--------------------------------------------------|
A|--------------------------------------------------|
F|-0h2p0-0h3p0-0h5p0-0h7p0-0h8p0-0h7p0-0h5p0-0h7p0--|
C|--------------------------------------------------|
G|--------------------------------------------------|
C|--------------------------------------------------|

[02:51-02:54]
D|-----------------------------------------------|
A|-----------------------------------------------|
F|-0h2p0-0h3p0-0h5p0-0h7p0-0h8p0-0h10p0-0h8p0-7^-|
C|-----------------------------------------------|
G|-----------------------------------------------|
C|-----------------------------------------------|

[02:54-03:20]                             Guitar 1
D|----------------------|-------------------|x2
A|----------------------|-------------------|
F|-------12-10-9-10    -|-------7-5-4-5    -|
C|-0-0-0             x4-|-0-0-0          x4-|
G|-0-0-0               -|-0-0-0            -|
C|-0-0-0               -|-0-0-0            -|
 | . . .                  . . .
 |
 |                                                  Guitar 2
D|--------------------|-------------------------------------|x2(second part)
A|--------------------|-------------------------------------|
F|--------------------|-------------------------------------|
C|-0-0-0-0-0-0-0-0   -|-3(x8)-5(x8)-7(x8)-0-3-0-5-0-3-0-5-0-|
G|-0-0-0-0-0-0-0-0 x4-|-------------------------------------|
C|-0-0-0-0-0-0-0-0   -|-------------------------------------|
   . . . . . . . .                                     
 
[03:20-03:46]
D|-----------------------------------------------------|
A|-----------------------------------------------------|
F|-----------------------------------------------------|
C|-----------------------------------------------------|
G|-55555555/77777777/1010101010101010/1212121212121212-|
C|-----------------------------------------------------|
                                                       |x2
D|-----------------------------------------------------|
A|-----------------------------------------------------|
F|-----------------------------------------------------|
C|-----------------------------------------------------|
G|-77777777/88888888\77777777/88888775-----------------|
C|-----------------------------------------------------|

[03:46-04:17]
D|---------------------10-10-10-10-10-10-10-10-|
A|---------10-10-10-10-------------------------|
F|-7-7-7-7-------------------------------------|
C|---------------------------------------------|
G|---------------------------------------------|
C|---------------------------------------------|
                                               |x5
D|-6-6-6-6-8-8-8-8-6-6-6-6-6-6-8-8-------------|
A|---------------------------------------------|
F|---------------------------------------------|
C|---------------------------------------------|
G|---------------------------------------------|
C|---------------------------------------------|

[04:17-04:24]
D|-----------10-10-10-10-6-6-8-8-6-6-6-8-|x2
A|-----10-10-----------------------------|
F|-7-7-----------------------------------|
C|---------------------------------------|
G|---------------------------------------|
C|---------------------------------------|

[04:24-04:48]
D|---------------------------------------------------|
A|---------------------------------------------------|
F|---------------------------------------------------|
C|-[I'm not sure what the pattern is,              ]-| 
G|-[but this is just palm muted, open CG(C) strings]-|
C|---------------------------------------------------|

[04:48-05:18]
D|-8-----8-----8-----8-----8--------|x8|----------|
A|---6-----6-----6-----6------------|  |----------|
F|-----9-----9-----9-----9----------|  |----------|
C|--------------------------0-0-0-0-|  |-0~~~~~~~-|
G|--------------------------0-0-0-0-|  |-0~~~~~~~-|
C|--------------------------0-0-0-0-|  |-0~~~~~~~-|
                            . . . .

[05:18-0:29]
D|-8-------8-------8-----------------|
A|---6-5-6---6-5-6---6-5-6-----------|
F|-----------------------------------|
C|--------------------------0~~~~~~~-|
G|--------------------------0~~~~~~~-|
C|--------------------------0~~~~~~~-|


Legend:
. = Palm Mute
x = Muted Note
/ = Slide Up
\ = Slide Down
h = Hammer On
p = Pull Off
^ = Bend Note
~ = Let Ring
comments
We did not receive enough feedback on this tab! Please rate:
print report bad tab
1 2 3 4 5
I want to post or [tab]
guest
You may want to rate the tab now too:
select rating
Please do not post tabs as comments. Select "correction" instead!