Oops, an error
Loading. Please wait.

Mosley Tab

version 1
version 1

Whole song

Interactive

5,167 views 1 this week
5 commentsread comments
1 2 3 4 5
1 last vote to show rating
add to favorites
launch autoscroll
font size
0
reset
how to read this tab
guitar tuner
×
Best way to learn
"Mosley"
Autoscroll
slow
fast
+/-
esc
set tempo
stop
----------------------------------------------------------------------------
                        Mosley-August burns red
----------------------------------------------------------------------------

Tabbed by: Lordofwar147
Email: jefry147@yahoo.com

Tuning: Drop C

Intro
F|-------------------------------------------------------------------------|
A|-------------------------------------------------------------------------|
D|---------------------------------------------------5---------5-----7-----|
C|------------------------------5-----7------------------3-----------------|
G|-0---0-0--0--0------5---3---------------8---7----------------------------|
C|-0---0-0--0--0--0-0---0---0-0---0-0---0---0----3-3---3---3-3---3-3-------|
       . .  .  .  . .   .   . .   . .   .   .    . .   .   . .   . .
F|-----------------------------------------------------------|
A|-----------------------------------------------------------|
D|---5----------------------------7--------------------------|
C|-------3----------8-----5-----------7---------2---3--------|
G|----------------------------------------------3---5--------|
C|-3---3---5555-5-5---5-5---5-555---5---0-000-0---0---0-0----|
   .   .   .... . .   . .   . ...   .   . ... .   .   . .
F|----------------------|
A|-----------8----------|
D|------9-10---10-9-----|
C|-7-10-------------10--|
G|----------------------|
C|----------------------|


F|----------------------------------------------------------|
A|----------------------------------------------------------|
D|------------------------------------5---------5-----7-----|
C|---------------5-----7------------------3-----------------|
G|-----5---3---------------8---7----------------------------|
C|-0-0---0---0-0---0-0---0---0----3-3---3---3-3---3-3-------|
   . .   .   . .   . .   .   .    . .   .   . .   . .


F|-----------------------------------------------------------|
A|-----------------------------------------------------------|
D|---5----------------------------7--------------------------|
C|-------3----------8-----5-----------7---------2---3--------|
G|----------------------------------------------3---5--------|
C|-3---3---5555-5-5---5-5---5-555---5---0-000-0---0---0-0----|
   .   .   .... . .   . .   . ...   .   . ... .   .   . .
F|----------------------|
A|-----------8----------|
D|------9-10---10-9-----|
C|-7-10-------------10--|
G|----------------------|
C|----------------------|


F|---------------------------------------------------------------|
A|---------------------------------------------------------------|
D|-----0---2p0---0---2---3---2p0-----2---3p2---2---3---5---3p2---|
C|---------------------------------------------------------------|
G|---------------------------------------------------------------|
C|-1-1---1-----1---1---1---1-----3-3---3-----3---3---3---3-------|
   . .   .     .   .   .   .     . .   .     .   .   .   .
F|------------------------------------------|
A|------------------------------------------|
D|-------------------------------10--10-10--|
C|-8--8-8--10--10-10--12--12-12--8---8--8---|
G|-5--5-5--8---8--8---8---8--8---8---8--8---|
C|-5--5-5--8---8--8---8---8--8---8---8--8---|


Guitar 1
F|---------------------------------------------------------------|
A|---------------------------------------------------------------|
D|-----0---2p0---0---2---3---2p0-----2---3p2---2---3---5---3p2---|
C|---------------------------------------------------------------|
G|---------------------------------------------------------------|
C|-1-1---1-----1---1---1---1-----3-3---3-----3---3---3---3-------|
   . .   .     .   .   .   .     . .   .     .   .   .   .

Guitar 2 plays with guitar 1
F|---------------------------------------------------------------|
A|---------------------------------------------------------------|
D|---------------------------------------------------------------|
C|-----1---3p1---1---3---5---3p1-----3---5p3---3---5---7---5p3---|
G|---------------------------------------------------------------|
C|-1-1---1-----1---1---1---1-----3-3---3-----3---3---3---3-------|
   . .   .     .   .   .   .     . .   .     .   .   .   .

F|------------------------------------------|
A|------------------------------------------|
D|-------------------------------10--10-10--|
C|-8--8-8--10--10-10--12--12-12--8---8--8---|
G|-5--5-5--8---8--8---8---8--8---8---8--8---|
C|-5--5-5--8---8--8---8---8--8---8---8--8---|

Play this section 4 times before the breakdown
F|--------------------------------------------------|
A|--------------------------------------------------|
D|-------------------10-9-10---12-10-9--------------|
C|---------7-------7-------------------------2---3--|
G|-----------5-------------------------------3---5--|
C|-0-0-0-0-----0-0-----------0---------0-0-0---0----|
   . . . .     . .           .         . . .   .
F|-------------------------------|
A|-------------------------------|
D|---14-10-----------------------|
C|---------14-12-12h14p12-11-----|
G|---------------------------13--|
C|-0-----------------------------|
   .
After the bass part
F|----------|
A|----------|
D|----------|
C|-7-3------|
G|-----7-4--|
C|----------|

Breakdown! (gets played 4 times)
F|----------------------------------------------------|
A|----------------------------------------------------|
D|----------------------------------------------------|
C|----------------------------------------------------|
G|----------------------------------------------------|
C|-0000-0-00-00000000-0-00000-00000-00000000-0000-00--|
   .... . .. ........ . ..... ..... ........ .... ..
Guitar 2 comes in (after breakdown part is played twice) with this
(finger tapped)
F|---------------------------------------------------|
A|-10h11h18p10h11h18p10h11-10h11h18p10h11h18p10h11---|
D|---------------------------------------------------|
C|---------------------------------------------------|
G|---------------------------------------------------|
C|---------------------------------------------------|

F|-12h13h17p12h13h17p12h13-12h13h17p12h13h17p12h13---|
A|---------------------------------------------------|
D|---------------------------------------------------|
C|---------------------------------------------------|
G|---------------------------------------------------|
C|---------------------------------------------------|

F|---------------------------------------------------|
A|-11h15h18p11h15h18p11h15-11h15h18p11h15h18p11h15---|
D|---------------------------------------------------|
C|---------------------------------------------------|
G|---------------------------------------------------|
C|---------------------------------------------------|

F|---------------------------------------------------|
A|---------------------------------------------------|
D|-10h14h19p10h14h17p10h14-10h14h19p10h14h17p10h14---|
C|---------------------------------------------------|
G|---------------------------------------------------|
C|---------------------------------------------------|

F|--------------------------|
A|--------------------------|
D|--------------------------|
C|--------------------------|
G|-0--0--3--3--8--8--3--3---|
C|-0--0--3--3--8--8--3--3---|

F|--------------------------------------------------------|
A|--------------------------------------------------------|
D|--------------------------------------------------------|
C|---------------------------------------(pick slide)-----|
G|-0-------3-------8-------3---------0----<<<<<<<<--------|
C|-0-(x16)-3-(x16)-8-(x16)-3-(x16)---0----<<<<<<<<--------|
   .       .       .       .

Play intro twice
F|----------------------------------------------------------|
A|----------------------------------------------------------|
D|------------------------------------5---------5-----7-----|
C|---------------5-----7------------------3-----------------|
G|-----5---3---------------8---7----------------------------|
C|-0-0---0---0-0---0-0---0---0----3-3---3---3-3---3-3-------|
   . .   .   . .   . .   .   .    . .   .   . .   . .


F|-----------------------------------------------------------|
A|-----------------------------------------------------------|
D|---5----------------------------7--------------------------|
C|-------3----------8-----5-----------7---------2---3--------|
G|----------------------------------------------3---5--------|
C|-3---3---5555-5-5---5-5---5-555---5---0-000-0---0---0-0----|
   .   .   .... . .   . .   . ...   .   . ... .   .   . .
F|----------------------|
A|-----------8----------|
D|------9-10---10-9-----|
C|-7-10-------------10--|
G|----------------------|
C|----------------------|

Guitar 1
F|---------------------------------------------------------------|
A|---------------------------------------------------------------|
D|-----0---2p0---0---2---3---2p0-----2---3p2---2---3---5---3p2---|
C|---------------------------------------------------------------|
G|---------------------------------------------------------------|
C|-1-1---1-----1---1---1---1-----3-3---3-----3---3---3---3-------|
   . .   .     .   .   .   .     . .   .     .   .   .   .

Guitar 2 plays with guitar 1
F|---------------------------------------------------------------|
A|---------------------------------------------------------------|
D|---------------------------------------------------------------|
C|-----1---3p1---1---3---5---3p1-----3---5p3---3---5---7---5p3---|
G|---------------------------------------------------------------|
C|-1-1---1-----1---1---1---1-----3-3---3-----3---3---3---3-------|
   . .   .     .   .   .   .     . .   .     .   .   .   .

F|------------------------------------------|
A|------------------------------------------|
D|-------------------------------10--10-10--|
C|-8--8-8--10--10-10--12--12-12--8---8--8---|
G|-5--5-5--8---8--8---8---8--8---8---8--8---|
C|-5--5-5--8---8--8---8---8--8---8---8--8---|
Play that section twice

.  palm mute
/  slide up
\  slide down
*  pinch harmonic
p  pull off
h  hammer-on
<  pick slide
Suggest correction
Give kudos to tab author, rate the tab!
1 2 3 4 5
comments
print report bad tab
5 comments total. Showing first comments.
0 reply
cslink 151 Feb 28, 2009 09:05 AM

my favorite breakdown of all time
nice work, looks like a 5*, havnet played it yet but it looks good so **** it... 5* haha

0 reply
cslink 151 Mar 04, 2009 11:28 AM

and you also have the tuning backwards... kinda..
you put CGCDAF... u ment to put CDCFAD... maybe fix it... i got it but most ppl are picky

0 reply
l0rdslayer 51 Mar 11, 2009 07:47 AM

The big epic tapping part at the end is as follows...

t t t t t
D-10-6-3-6-10-6-3-6-10-6-11-6-10-6-3-6-
A--------------------------------------
F--------------------------------------
C--------------------------------------
G--------------------------------------
C--------------------------------------

t t t t t
D--------------------------------------
A-10-6-3-6-10-6-3-6-10-6-11-6-13-6-3-6-
F--------------------------------------
C--------------------------------------
G--------------------------------------
C--------------------------------------

t t t t
D-10-6-3-6-10-6-3-6-13-6-3-6-13-6-3-6--
A--------------------------------------
F--------------------------------------
C--------------------------------------
G--------------------------------------
C--------------------------------------

t t t t
D-13-10-13-10-8-6-8-10-13-10-13-10-8-6-8-10-
A-------------------------------------------
F-------------------------------------------
C-------------------------------------------
G-------------------------------------------
C-------------------------------------------

Sorry for any errors, I'm pretty sure this is correct.I'm not the best tabber. But if you know the song you'll be able to read this and play it right.

guest
You may want to rate the tab now too:
select rating
Wanna post a correction for this tab? Suggest correction