Oops, an error
Loading. Please wait.

Salt And Light Tab

version 1
version 1

Whole song

Interactive

11,629 views 36 this week
5 commentsread comments
1 2 3 4 5
excellent!
x 6
add to favorites
launch autoscroll
font size
0
reset
how to read this tab
guitar tuner
Tab Pro tools
  • play this tab
  • loop segment
  • change instrument
  • show fretboard
  • metronome
Autoscroll
slow
fast
+/-
esc
set tempo
stop
Contributor
-----------------------------------------------------------------
                Salt & Light - August Burns Red
-----------------------------------------------------------------
Tabbed by: Kristyn Lee
Email: spot_the_village_loony_836@hotmail.com

Tuning: Drop C

0:00 - 0:12
Guitar 1
D|------------------------------------------------------|
A|------------------------------------------------------|
F|------------------------------------------------------|
C|---------------------------------------------0--------|
G|-------0---0-------0---0---------4-------4-----4------|
C|---444---4---4-444---4---4-2/4-7---7-777---7-----7----|
PM   ...   .   . ...   .   .     .   . ...   .     
Guitar 2
D|------------------------------------------------------|
A|------------------------------------------------------|
F|------------------------------------------------------|
C|------------------------------------------------------|
G|---444---------444-------------------777--------------|
C|---444---------444-------------------777--------------|
PM   ...         ...                   ...
Guitar 1
D|----------------------------------------|
A|----------------------------------------|
F|-----------6b7r6------6b7r6-------------|
C|-------4--------------------------------|
G|---555---5-------555--------------------|
C|------------------------------777-------|
PM                 ...          ...
Guitar 2
D|------------------------------------------|
A|------------------------------------------|
F|------------------------------------------|
C|---0~~------------------------------------|
G|---0~~------------------------------------|
C|---0~~------------------------777---------|
PM                              ...

------------------------------------------------------------------------
0:12 - 0:25
Guitar 1
D|------------------------------------------------------|
A|------------------------------------------------------|
F|------------------------------------------------------|
C|---------------------------------------------0--------|
G|-------0---0-------0---0---------4-------4-----4------|
C|---444---4---4-444---4---4-2/4-7---7-777---7-----7----|
PM   ...   .   . ...   .   .     .   . ...   .  
Guitar 2
D|------------------------------------------------------|
A|------------------------------------------------------|
F|------------------------------------------------------|
C|---------------------------------------------0--------|
G|-------0---0-------0---0---------4-------4-----4------|
C|---444---4---4-444---4---4-2/4-7---7-777---7-----7----|
PM   ...   .   . ...   .   .     .   . ...   .  
Guitar 1
D|----------------------------------------|
A|----------------------------------------|
F|------------6b7r6------6b7r6------------|
C|-------4--------------------------------|
G|---555---5---------555------------------|
C|------------------------------777-------|
PM   ...             ...        ...
Guitar 2
D|----------------------------------------|
A|------------5b6r5------5b6r5------------|
F|----------------------------------------|
C|-------4--------------------------------|
G|---555---5---------555------------------|
C|------------------------------777-------|
PM   ...             ...        ...
-------------------------------------------------------------------------
0:26 - 0:37 Both Guitars

D|--------------------------------------------------------------|
A|--------------------------------------------------------------|
F|--------------------------------------------------------------|
C|----------------------------------------2-------------2-------|
G|---2h444-2h444444-2h444/777-777-000-000-4-000-000-000-4-000---|
C|---2h444-2h444444-2h444/777-777-000-000---000-000-000---000---|
PM     ...   ......   ... ... ... ... ...   ... ... ...   ...

0:37 
Guitar 1
D|---------------------------------------------------------------------|
A|---------------------------------------------------------------------|
F|--6-----6-----6/--9---6-9---9/14-11---------11----14----------11-----|
C|----7p4---7p4---7---7-----7--------12-11-12----12----12-11-12---12---|
G|---------------------------------------------------------------------|
C|---------------------------------------------------------------------|

D|-------------------------|
A|-------------------------|
F|---11--------------------|
C|------12-11-12-----------|
G|-------------------------|
C|-------------------------|

0:37 - 0:48
Guitar 2
D|--------------------------------------------------------------|
A|--------------------------------------------------------------|
F|--------------------------------------------------------------|
C|----------------------------------------2-------------2-------|
G|---2h444-2h444444-2h444/777-777-000-000-4-000-000-000-4-000---|
C|---2h444-2h444444-2h444/777-777-000-000---000-000-000---000---|
PM     ...   ......   ... ... ... ... ...   ... ... ...   ...

--------------------------------------------------------------------------
0:48
D|-------------------------|
A|------------14-14-14-----|
F|---11-11-11--------------|x4
C|-------------------------|
G|-------------------------|
C|-------------------------|

---------------------------------------------------------------------------

0:52
Guitar 1     x4
D|-----------------------------------------------------------------|
A|-----------------------------------------------------------------|
F|---6-----6-----6/9---6-9---6-9--6-----6--------------------------|
C|-----7p4---7p4-----7-----7--------7-----7---7-6--7-9-7-6---------|
G|------------------------------------7-----7--------------7-------|
C|-----------------------------------------------------------------|

1:03
Guitar 2   x2
D|--------------------------------------------|
A|--------------------------------------------|
F|--------------------------------------------|
C|--------------------------------------------|
G|---4-44444-0-000000-7-777777-2-222222-------|
C|---4-44444-0-000000-7-777777-2-222222-------|
PM     .....   ......   ......   ......
-------------------------------------------------------------------------
1:13 Both Guitars   x2

D|------------------------------------------------------------------|
A|------------------------------------------------------------------|
F|------------------------------------------------------------------|
C|------------------------------------------------------------------|
G|---4444-4444-4444-0000-0000-0000-4444-4444-4444-2222-2222-2222----|
C|---4444-4444-4444-0000-0000-0000-4444-4444-4444-2222-2222-2222----|
PM   .... .... .... .... .... .... .... .... .... .... .... ....
-------------------------------------------------------------------------
1:25
Guitar 1
D|--------------------------------------------------------------------|
A|--------------------------------------------------------------------|
F|---6-----6-----6/9---6-9---6-9---9---6-9---6-9----------------------|
C|-----7p4---7p4-----7-----7-----7---7-----7-----7-6--6-7-9-7-6-9-----|
G|---------------------------------------------------7----------------|
C|--------------------------------------------------------------------|

D|----------------------------------9------9------9----7-----7-----7-----|
A|------------------------------------10p7---10p7---10---9p5---9p5---9---|
F|---6-----6-----6/9---6-9---6-9-----------------------------------------|
C|-----7p4---7p4-----7-----7-----7---------------------------------------|
G|-----------------------------------------------------------------------|
C|-----------------------------------------------------------------------|
Guitar 2
D|---------------------------------------|
A|---------------------------------------|
F|---------------------------------------|
C|---------------------------------------|
G|---44444444000000007777777722222222----|
C|---44444444000000007777777722222222----|
PM   ................................
-----------------------------------------------------------------------
1:37  Both Guitars
D|------------------------------------------|
A|------------------------------------------|
F|---6~~------------------------------------|
C|---4~~------------------------------------|
G|---4~~------pick-scrape-------------------|
C|---4~~------------------------------------|
Both Guitars     x2
D|------------------------------------------|
A|------------------------------------------|
F|---66666-22222------------67766-----------|
C|---44444-00000-1111111111-22222-----------|
G|---44444-00000-7-7-7-7-7--22222-----------|
C|---44444-00000-7-7-7-7-7--22222-----------|


D|-----------------------------------------------------------------------|
A|--------------------10-10-14p10---14p10--------14h15p14-17-12/14-17----|
F|-------------------------------11------11------------------------------|
C|--------11-11-14-14-----------------------9/11-------------------------|
G|---12-12---------------------------------------------------------------|
C|-----------------------------------------------------------------------|


D|---------19p17p16-17p16----------------14----16----------16-------21b---|
A|---14/17----------------17-14/17-17-17----17----17p16h17----17-17-------|
F|------------------------------------------------------------------------|
C|------------------------------------------------------------------------|
G|------------------------------------------------------------------------|
C|------------------------------------------------------------------------|


D|---21-21-17-17-16-16----------------14----------------------------------|
A|---------------------17-17-14h15p14----14h15-12/14----------------------|
F|------------------------------------------------------------------------|
C|----------------------------------------------------14\11~--11/14~\\\---|
G|------------------------------------------------------------------------|
C|------------------------------------------------------------------------|

---------------------------------------------------------------------------

2:02
Guitar 1

D|---0~---0~-----0~---0~----------------|
A|---0~---0~-----0~---0~----------------|
F|---9~---9~-----9~---9~----------------|
C|---7~---9~----11~---6~----------------|
G|--------------------------------------|
C|--------------------------------------|

2:13    
Guitar 2   x4
D|---------------------------------------------------|
A|---------------------------------------------------|
F|-------6-----6-----6/9~-----6---6------------------|
C|---6h7---7p4---7p4--------7---9---7-6~----4h6~-----|
G|----------------------------------------7----------|
C|---------------------------------------------------|


2:49     play this 6 times
Guitar 1
D|---12------12------12----10------10------10----9------9------9-------|
A|------10p9----10p9----10----10p7----10p7----10---10p7---10p7---10----|
F|---------------------------------------------------------------------|
C|---------------------------------------------------------------------|
G|---------------------------------------------------------------------|
C|---------------------------------------------------------------------|

D|---7-----7-----7-----------------------|
A|-----9p5---9p5---9---------------------|
F|---------------------------------------|
C|---------------------------------------|
G|---------------------------------------|
C|---------------------------------------|

3:01
Guitar 2   "we sing for you..."
D|------------------------------------------|
A|------------------------------------------|
F|---66666-22222------------66666-----------|x2
C|---44444-00000-1111111111-22222-----------|
G|---44444-00000-7-7-7-7-7--22222-----------|
C|---44444-00000-7-7-7-7-7--22222-----------|

3:13
Guitar 2 plays a harmony with guitar 1 here, i can't figure it out.

3:25
Guitar 1
D|---------------------------|
A|---14~~~~------------------|
F|---------------------------|
C|-------------------14~~----|
G|---------------------------|
C|---------------------------|
Guitar 2
D|---------------------------|
A|--10~~~~-------------------|
F|---------------------------|
C|---------------------------|
G|---------------------------|
C|---------------------------|


************************************

| .   palm mute
| /   slide up
| \   slide down
| h   hammer-on
| p   pull-off
| ~   vibrato
| +   harmonic
| b   Bend
| pb  Pre-bend
| br  Bend release
| pbr Pre-bend release
| brb Bend release bend

************************************
comments
print report bad tab
5 comments total. Showing first comments.
0 reply
josh-josh-josh wrote on June 30 2011, 07:20 pm

ah so nice to see someone else actually using times, and blocking off the different sections, n labeling the guitars :P aha makes it so much easier to read!

0 reply
klee1688 wrote on July 2 2011, 03:20 am

thank you!!

0 reply
Muzak wrote on July 3 2011, 12:18 pm

awesome work yet again krystin!! haha

I want to post or [tab]
guest
You may want to rate the tab now too:
select rating
Please do not post tabs as comments. Select "correction" instead!