Oops, an error
Loading. Please wait.

Salt And Light Tab

version 4
version 4

Whole song

Interactive

3,638 views 1 this week
no commentswrite comment
1 2 3 4 5
excellent!
x 8
add to favorites
launch autoscroll
font size
0
reset
how to read this tab
guitar tuner
Autoscroll
slow
fast
+/-
esc
set tempo
stop
Help us to improve Ultimate-Guitar.com Take our survey!
×
Author
Difficulty
Tuning
intermediate
C G C F A D
-----------------------------------------------------------------------------
                    August Burns Red - Salt And Light
-----------------------------------------------------------------------------
Tabbed by:Metalcoreking
Email:Matthessell@live.com

Tuning:CGCFAD

INTRO
D|----------------------------------------------------------------------(x4)|
A|--------------------------------------------------------------------------|
F|---------------------------------------------------------6br-----6br------|
C|-----------------------------------------0-----------4--------------------|
G|-----0---0-----0---0---------4-0-----4-----4---4-555---5-----555----------|
C|-444---4---444---4---4-0-2-4-----777---7-----7----------------------------|

D|----------------------------------------------------------------------(x2)|
A|--------------------------------------------------------------------------|
F|--------------------------------------------------------------------------|
C|--------------------------------------------------------------------------|
G|-2244-2244444-22444-777-777-000-000-4-000-000-000-4-000-------------------|
C|-2244-2244444-22444-777-777-000-000-7-000-000-000-7-000-------------------|
   xxxx xxxxxxx xxxxx xxx xxx xxx xxx x xxx xxx xxx x xxx

VERSE
D|--------------------------------------------------------------------------|
A|-----------------------------5/10------------------10---------------------|
F|-6-----6-----6---9---7-9---7------11----------11-------------11--11-------|
C|---7-----7-----7---7-----7-----------12-11-12----12--12-11-12--12--11-12--|
G|-----9-----9--------------------------------------------------------------|
C|--------------------------------------------------------------------------|
 |                                                                          |
D|----------------------------------------------------------------------(x4)|
A|----------14-10-----------------------------------------------------------|
F|-11----11-------11--------------------------------------------------------|
C|----12--------------------------------------------------------------------|
G|--------------------------------------------------------------------------|
C|--------------------------------------------------------------------------|

D|----------------------------------------------------------------------(x4)|
A|--------------------------------------------------------------------------|
F|-6-----6-------9---7-9---7-9-6-----6--------------------------------------|
C|---7-----7---7---7-----7-------7-----7---/7-6---7-9-6---------------------|
G|-----9-----9---------------------7-----7------7-------7-------------------|
C|--------------------------------------------------------9-----------------|

D|----------------------------------------------------------------------(x2)|
A|--------------------------------------------------------------------------|
F|--------------------------------------------------------------------------|
C|--------------------------------------------------------------------------|
G|-444-44444-444-000-00000-000-777-77777-777-222-22222-222------------------|
C|-444-44444-444-000-00000-000-777-77777-777-222-22222-222------------------|
   xxx xxxxx xxx xxx xxxxx xxx xxx xxxxx xxx xxx xxxxx xxx   

D|--------------------------------------------------------------------------|
A|--------------------------------------------------------------------------|
F|-6-----6-----6---9---7-9---7-9---9---6-9---6-9----------------------------|
C|---7-----7-----7---7-----7-----7---7-----7-----7-------6-7-6---9----------|
G|-----9-----9-------------------------------------7---7-------7------------|
C|---------------------------------------------------9----------------------|
 |                                                                          |
D|---------------------------------9------9------9----7-----7-----7---------|
A|-----------------------------------10-----10-----10---9-----9-----9-------|
F|-6-----6-----6---9---7-9---7-9--------9------9----------9-----9-----------|
C|---7-----7-----7---7-----7-----7--------------------------------------0~--|
G|-----9-----9----------------------------------------------------------0~--|
C|----------------------------------------------------------------------0~--|

BREAKDOWN
D|--------------------------------------------------------------------------|
A|--------------------------------------------------------------------------|
F|--------------------------------------------------------------------------|
C|-7-7-7-7-7-7-7-7-6-7-7-7-7-7-7-7-11111111111111117-7-7-6-6-6-6-6----------|
G|-4-4-4-4-4-4-4-4-0-0-0-0-0-0-0-0-7-7-7-7-7-7-7-7-2-2-2-2-2-2-2-2----------|
C|-4-4-4-4-4-4-4-4-0-0-0-0-0-0-0-0-7-7-7-7-7-7-7-7-2-2-2-2-2-2-2-2----------|
 |                                                                          |
D|--------------------------------------------------------------------------|
A|--------------------------------------------------------------------------|
F|---------------------------------------9-9-9-9-9--------------------------|
C|-7-7-7-7-7-7-7-7-6-7-7-7-7-7-7-7-1111117-7-7-7-7-7-7-7-6-6-6-6-6----------|
G|-4-4-4-4-4-4-4-4-0-0-0-0-0-0-0-0-7-7-7-7-7-7-7-7-2-2-2-2-2-2-2-2----------|
C|-4-4-4-4-4-4-4-4-0-0-0-0-0-0-0-0-7-7-7-7-7-7-7-7-2-2-2-2-2-2-2-2----------|

SOLO
D|-----------------------9-------9------------------------------------------|
A|-----------------10-10---10------10---------------------------------------|
F|-------------9-9------------11------11-9/11-------------------------------|
C|-------11-11--------------------------------------------------------------|
G|-12-12--------------------------------------------------------------------|
C|--------------------------------------------------------------------------|
 |                                                                          |
D|-9h10p9-12-------12-------16----19p17p16----------------------------------|
A|-----------10/14----14/17----17----------17-15----------------------------|
F|-----------------------------------------------16-------------------------|
C|--------------------------------------------------18----------------------|
G|--------------------------------------------------------------------------|
C|--------------------------------------------------------------------------|
 |                                                                          |
D|-------------17-------------------22--------------------------------------|
A|-17-17-19-17----17-17-19/22-19--------------------------------------------|
F|-------------------------------21-----------------------------------------|
C|--------------------------------------------------------------------------|
G|--------------------------------------------------------------------------|
C|--------------------------------------------------------------------------|
 |                                                                          |
D|-21-21-17-17--------------------------------------------------------------|
A|-------------21-21-17-17-15h17p15-19-14/15--------------------------------|
F|-------------------------------------------16-----------------------------|
C|----------------------------------------------18--------------------------|
G|-------------------------------------------------19----16-16/19-19\-------|
C|--------------------------------------------------------------------------|

INTERLUDE
D|-0----0----0----0----------------------------------------------------(x10)|
A|-0----0----0----0---------------------------------------------------------|
F|-2----2----6----4---------------------------------------------------------|
C|------0----7----6---------------------------------------------------------|
G|----------------7---------------------------------------------------------|
C|--------------------------------------------------------------------------|

OUTRO
D|----------------------------------------------------------------------(x4)|
A|-17----17----17---15----15----15---14----14----14---12----12----12--------|
F|---14----14----14---15----15----15---14----14----14---13----13----13------|
C|-----14----14---------14----14---------14----14---------14----14----------|
G|--------------------------------------------------------------------------|
C|--------------------------------------------------------------------------|
 |                                                                          |
D|--------------------------------------------------------------------------|
A|-10~----------------------------------------------------------------------|
F|-----9~-------------------------------------------------------------------|
C|--------------------------------------------------------------------------|
G|--------------------------------------------------------------------------|
C|--------------------------------------------------------------------------|

************************************

| /   slide up
| \   slide down
| h   hammer-on
| p   pull-off
| ~   vibrato
| +   harmonic
| x   Mute note
| b   Bend
| pb  Pre-bend
| br  Bend release
| pbr Pre-bend release
| brb Bend release bend

************************************
Suggest correction
What's this?
You can suggest a correction to this tab. Community and Mods will review your correction and vote to approve or reject it.
comments
print report bad tab
guest
You may want to rate the tab now too:
select rating
Please do not post tabs as comments. Select "correction" instead!