Oops, an error
Loading. Please wait.

Speech Imediment Tab

3,169 views 1 this week
5 commentsread comments
1 2 3 4 5
x 5
add to favorites
launch autoscroll
font size
0
reset
how to read this tab
guitar tuner
Autoscroll
slow
fast
+/-
esc
set tempo
stop
Help us to improve Ultimate-Guitar.com Take our survey!
×
Author
Tuning
C G C F A D
Intro:
Guitar 1. play 23 times; (0:00-about 0:18)

|----------------|
|-6p5------------|
|-----5h7--------|
|----------------|
|----------------|
|----------------|

Guitar 2. play 20 times.beginning after the the forth lick guitar one plays(there isnt 
easy way to play this; this is the most comfortable position i could come up with)

|-5p3-----------|(0:03-about 0:18) both:|------------------|(at about 0:18-|
|-----5h6-------|                       |------------------|  |------------|
|---------------|                       |------------------|  |------------|
|---------------|                       |--pick-slide-down-|  |-8\---------|
|---------------|                       |--pick-slide-down-|  |-8\---------|
|---------------|                       |--pick-slide-down-|or|-8\---------|

____________________________________________________________________________

Post Intro:

Guitar 1. Play 14 times then pick slide down at about 0:28

|-------------|
|-6p5---------|
|-----5h7-----|
|-------------|
|-------------|
|-------------|

Guitar 2. ( 0:18- about 0:29)

|----------------------------------------------------------|
|----------------------------------------------------------|
|----------------------------------------------------------|
|-8--8-7-3-5-----0-3-5-8--8-7-3-5------0---pick-slide-down-|
|-8--8-7-3-5-----0-3-5-8--8-7-3-5------0---pick-slide-down-|
|-8--8-7-3-5-----0-3-5-8--8-7-3-5------0---pick-slide-down-|
     x x x x              x x x x         (both guitars)

____________________________________________________________________________

Verse:

Both Guitars.play 3 times (0:30-0:43)

|-------------------------------------------------------------------------|
|-------------------------------------------------------------------------|
|---------------------77-66-99-77-1010-77----------------5p0-2p0-3p0------|
|-000-----000-5h7-------------------------8------0------------------------|
|-000-7h8-000-------------------------------10-8-0-5h7h8------------------|
|-000-----000------------------------------------0------------------------|
  xxx     xxx                                    x
____________________________________________________________________________

Verse 2:

Guitar 1. play once (0:43.5) low volume

|-------------|
|-6p5---------|
|-----7h5-----|
|-------------|
|-------------|
|-------------|

Guitar 2. play once (0:44)

|-5p3---------|
|-----5h6-----|
|-------------|
|-------------|
|-------------|
|-------------|

Both Guitars. play 4 times (0:45-1:08)

|----------------------------------------------------------------|
|----------------------------------------------------------------|
|----------------------------------------------------------------|
|-0-000-0--000-0-0-0-03---0-000-0--000-0-000-0-08----------------|
|-0-000-0--000-0-0-0-0-5--0-000-0--000-0-000-0-08----------------|
|-0-000-0--000-0-0-0-0----0-000-0--000-0-000-0-08----------------|
  x xxx x  xxx x x x x    x xxx x  xxx x xxx x x

____________________________________________________________________________

Verse 3:

Guitar 1. play twice (1:09-1:20)

|----------------------------------------------------------------|
|-----10-------10-8----11-10-8-10-8-----------12-12-5-6/8-8/10---|
|-5/7----7-5/7------10--------------10-7-9-10--------------------|
|----------------------------------------------------------------|
|----------------------------------------------------------------|
|----------------------------------------------------------------|

Guitar 2. play twice

|--------------------------|
|--------------------------|
|--------------------------|
|-0------8------8-8-8------|
|-0(32x)-8(16x)-8-8-8(4x)--|
|-0------8------8-8-8------|
  x      x      x x
____________________________________________________________________________

Verse 4: (1:21-2:05)

|----------10----------10----------10-12h10-12p10- 18(8x)-17(8x)-------------|
|-10-11-13----10-11-13----10-11-13------------------------------17(8x)-18p17-|
|----------------------------------------------------------------------------|
|-0-0-0---------------------------------------->8888-8-8888-8-8888-8-8888-8--|
|-0-0-0(Guitar II 4x)-------------------------->8888-8-8888-8-8888-8-8888-8--|
|-0-0-0---------------------------------------->8888-8-8888-8-8888-8-8888-8--|
  x x x                                         xxxx   xxxx   xxxx   xxxx


-18p17----------10----------10-----------10-12h10-12p10-18(8x)-17(8x)------|
-------10-11-13----10-11-13-----10-11-13-----------------------------17----|(8x)
---------------------------------------------------------------------------|
-8888-8--->0-0-0-----------------------------------------------------------|
-8888-8--->0-0-0-----------------------------------------------------------|
-8888-8--->0-0-0-----------------------------------------------------------|
 xxxx      x x x

-----------------------------------------------------------12(6X)-|
-18(8x)---------------------8(9x)-------------11(9x)-10(6X)-------|
--------7(9x)-9(3x)-10(12x)-------10(6x)-9(6x)--------------------|
------------------------------------------------------------------|
------------------------------------------------------------------|
------------------------------------------------------------------|

Guitar 2. play twice.then harmonize with Guitar 1 at 7(9x)=(1:33)

|----------------------------------------|
|----------------------------------------|
|----------10-9-7------------------------|
|000-----7--------7h8-0h5h7-0h3h5-02h3---|
|000-7-8---------------------------------|
|000-------------------------------------|
 xxx

|----------------------------------------------------12(6X)-|
|---------------------8(9x)-------------11(9x)-10(6X)-------|
|-7(9x)-9(3x)-10(12x)-------10(6x)-9(6x)--------------------|
|-----------------------------------------------------------|
|-----------------------------------------------------------|
|-----------------------------------------------------------|

Both Guitars. play twice

|--------------------------------------------------------------------------|
|--------------------------------------------------------------------------|
|-----------10-9-7-----------10-9-7-----------10-9-7-----------------------|
|-000-----7--------000-----7--------000-----7--------7h8-0h5h7-0h3h5-0h2h3-|
|-000-7-8----------000-7-8----------000-7-8--------------------------------|
|-000--------------000--------------000------------------------------------|
____________________________________________________________________________

Breakdown:(2:06-2:49)

Guitar 1.

|-------------------------|repeat 4 times then |-----------------------|
|-------------------------|                    |-----------------------|
|-------------------------|                    |-----------------------|
|-0h3h5-0h5h7-0h3h5-0h7h8-|                    |-7h8-0h5h7-0h3h5-0h2h3-|
|-------------------------|                    |-----------------------|
|-------------------------|                    |-----------------------|

Both Guitars. (Guitar 2 starts at 2:17, Guitar 1 is represented by "o" for open
a side note:this is confusing as hell)

|------------------------------------------------------------------|
|------------------------------------------------------------------|
|------------------------------------------------------------------|
|-0000-000-0-0-0-0-0-00000-0-00-00000000-000-o-0-------------------|
|-0000-000-0-0-0-0-0-00000-0-00-00000000-000-o-0-------------------|
|-0000-000-0-0-0-0-0-00000-0-00-00000000-000-o-0-0-0-00000-0-0-0-0-|
  xxxx xxx x x x x x xxxxx x xx xxxxxxxx xxx x x x x xxxxx x x x x


____________________________________________________________________________

Chorus. (2:49-3:13)

Guitar 1. (2:49-3:02) play 18x with the first 2 w/low volume.

|---------|
|-6p5-----|
|-----5h7-|
|---------|
|---------|
|---------|

|--------------|(16x,8x,4x,4x) |-------|(16x,9x)
|-10-6-5-6-----|               |-10----|
|--------------|               |----7--|
|--7-3-2-3-----|               |--7----|
|--------------|               |----5--|
|--------------|               |-------|

Guitar 2.(2:50-3:13)

|-5p3-----|
|-----5h6-|
|---------|
|---------|
|---------|
|---------|

|-----------------------------------------------------------------|
|-----------------------------------------------------------------|
|-----------------------------------------------------------------|
|-8--8-7-3-5-0-3-5-8--8-7-3-5-0-3-5-8--8-7-3-5-0-3-5-8--8-7-3-5-0-|
|-8--8-7-3-5-0-3-5-8--8-7-3-5-0-3-5-8--8-7-3-5-0-3-5-8--8-7-3-5-0-|
|-8--8-7-3-5-0-3-5-8--8-7-3-5-0-3-5-8--8-7-3-5-0-3-5-8--8-7-3-5-0-|
     x x x x          x x x x          x x x x          x x x x

____________________________________________________________________________

Breakdown II. (3:15-3:32)

Guitar II. (3:15-3:24)

|-------------------------------------------------------------------|
|-------------------------------------------------------------------|
|-------------------------------------------------------------------|
|-000000-0-000-0-0-0-000-3---000000-0-000-000000-0-000-00-0-000-3---|
|-000000-0-000-0-0-0-000---5-000000-0-000-000000-0-000-00-0-000---5-|
|-000000-0-000-0-0-0-000-----000000-0-000-000000-0-000-00-0-000-----|
  xxxxxx x xxx x x x xxx     xxxxxx x xxx xxxxxx x xxx xx x xxx

Both Guitars. (3:24-3:32)

|----------------------------------------------------------------------|
|----------------------------------------------------------------------|
|----------------------------------------------------------------------|
|-000000-000000-0-000-00-0-00-3---000000-0-000-00-000-3---000000-0-000-|
|-000000-000000-0-000-00-0-00---5-000000-0-000-00-000---5-000000-0-000-|
|-000000-000000-0-000-00-0-00-----000000-0-000-00-000-----000000-0-000-|
  xxxxxx xxxxxx x xxx xx x xx     xxxxxx x xxx xx xxx     xxxxxx x xxx
____________________________________________________________________________

Breakdown III. (3:32-4:0)

Guitar I. low volume

|--------------|
|--------------|
|---------9/14-|
|-0-00-00------|
|-0-00-00-7/12-|
|-0-00-00------|
  x xx xx

Guitar I and II. play twice

|------------------------------------------------------------------------|
|------------------------------------------------------------------------|
|---------9/14\10---------10\9\6-----------------------------------2-----|
|-0-00-00---------0-00-00--------0-00-00-8-0-3-2-----8-7---0-2-3-5---3---|
|-0-00-00-7/12\8--0-00-00--8\7\4-0-00-00---0-3-2-5-7-----8-0-2-3-5-----4-|
|-0-00-00---------0-00-00--------0-00-00-8-0-3-2-----------0-2-3-5-------|
  x xx xx         x xx xx        x xx xx   x x x           x x x x

____________________________________________________________________________

Outro.

Guitar I and II.

|-------------------------------------------------------|
|-------------------------------------------------------|
|-------------------------------------------------2-----|
|-0-00-00-0-00-00-0-00-00-0-3-2-----8-7---0-2-3-5---3---|
|-0-00-00-0-00-00-0-00-00-0-3-2-5-7-----8-0-2-3-5-----4-|
|-0-00-00-0-00-00-0-00-00-0-3-2-----------0-2-3-5-------|
  x xx xx x xx xx x xx xx x x x           x x x x

This is my first tab so go easy on me guys..haha...just did'nt see any accurate tabs for this
great song, so I thought I would go ahead and tab it out.....Don't worry about the
Breakdown...I'll have that done in a day or two...and the song is called speech impediment..I
was tired..and the editor wont let me correct it...so crap
Suggest correction
comments
print report bad tab
5 comments total. Showing first comments.
0 reply
metal10468 464 Feb 08, 2007 06:03 PM

Great tab. My only suggestion is in the beginning I think they palm mute and tremolo those opening riffs but other than that this tab is perfect. Nice job.

0 reply
tayluh 31 Feb 08, 2007 10:30 PM

which part?

0 reply
littlewahoo27 186 Mar 07, 2007 06:16 PM

no offense but really bad tab.

guest
You may want to rate the tab now too:
select rating
Wanna post a correction for this tab? Suggest correction