Oops, an error
Loading. Please wait.

Speech Impediment Tab

version 1
version 1

Intro

Whole song

Interactive

2,222 views 1 this week
5 commentsread comments
1 2 3 4 5
x 4
add to favorites
launch autoscroll
font size
0
reset
how to read this tab
guitar tuner
Autoscroll
slow
fast
+/-
esc
set tempo
stop
Help us to improve Ultimate-Guitar.com Take our survey!
×
Author
 Guitar I
||--------------------------------------------------------------|
||--------------------------------------------------------------|
||-10-9----7-10-9----7-10-9----7-10-9----7----------------------|
||------10--------10--------10--------10------------------------|
||--------------------------------------------------------------|
||--------------------------------------------------------------|

  Guitar II
||--------------------------------------------------------------|
||--------------------------------------------------------------|
||--------------------------------------------------------------|
||-8~-----------------------------------------------------------|
||-8~-----------------------------8-7-5-3-----------------------|
||-8~-----------------------------8-7-5-3-----------------------|
                                  . . . .               
  Guitar I
||--------------------------------------------------------------|
||--------------------------------------------------------------|
||-10-9----7-10-9----7-10-9----7-10-9----7----------------------|
||------10--------10--------10--------10------------------------|
||--------------------------------------------------------------|
||--------------------------------------------------------------|

  Guitar II
||--------------------------------------------------------------|
||--------------------------------------------------------------|
||--------------------------------------------------------------|
||-0~------------------3---------5------------------------------|
||-0~------------------3---------5------------------------------|
||-0~------------------3---------5------------------------------|

 Guitar I
||--------------------------------------------------------------|
||--------------------------------------------------------------|
||-10-9----7-10-9----7-10-9----7-10-9----7----------------------|
||------10--------10--------10--------10------------------------|
||--------------------------------------------------------------|
||--------------------------------------------------------------|

  Guitar II
||--------------------------------------------------------------|
||--------------------------------------------------------------|
||--------------------------------------------------------------|
||-8~-----------------------------------------------------------|
||-8~-----------------------------------------------------------|
||-8~-----------------------------------------------------------|

  Guitar I
||--------------------------------------------------------------|
||--------------------------------------------------------------|
||-10-9----7-10-9----7-10-9----7-10-9----7----------------------|
||------10--------10--------10--------10------------------------|
||--------------------------------------------------------------|
||--------------------------------------------------------------|

 This riff comes afet about 1:20 min in the song...  Its kinda hard to tab this hole
tab so i just tab some riffs in the song. 

||---------9---------9---------9-13-12-13-12-18181818-17171717----------------18p17-|
||-9-10-13---9-10-13---9-10-13---------------------------------17171717-18p17-------|
||----------------------------------------------------------------------------------|
||----------------------------------------------------------------------------------|
||----------------------------------------------------------------------------------|
||----------------------------------------------------------------------------------|

||--------------------------------------------------------------------|
||--------------------------------------------------------------------|
||--------------------------------------------------------------------|
||--121212121212-1414-15151515-999999-15151515-14141414-8888-7777-888-|
||--------------------------------------------------------------------|

Thanks!
||--------------------------------------------------------------------|
Suggest correction
comments
print report bad tab
5 comments total. Showing first comments.
0 reply
Fe3lZliKeFaiLuR 10 Jan 17, 2006 06:42 PM

yay! thats what i needed thanks throw on more if you get it still very nice i put 5 star but it gave you 4 anyway oh well nice job.

0 reply
kostkaskater 30 Jan 25, 2006 09:19 AM

I gave you a 4 but I would've given you a 5 if you had done the whole tab before you submitted it. It's ok. Good Job!

0 reply
jetsfan1457 72 Feb 20, 2006 10:08 AM

You don't have the second guitar in the intro. This tab is a waste of time. I'll do my own.

guest
You may want to rate the tab now too:
select rating
Wanna post a correction for this tab? Suggest correction